Login or Register to remove this ad. | Advertise Here

Chocobo's Theme (Final Fantasy IV) Guitar Tab

Submitted: Oct 03, 2007 by archard

4.75
Average: 4.8 (4 votes)
Download | Listen
Game: Final Fantasy IV
Composer(s): Nobuo Uematsu
Style: Transcription
Series: Final Fantasy

AutoScroll: Slow | Medium | Fast
Original song by Nobuo Uematsu. Copyright Square Enix 1987 - Present.
Tabbed by mack2404@hotmail.co.uk (Damien Robson)

This is the chocobo melody from the Final Fantasy series. This is my first
tab,
so apologies if it doesn't sound right. Any corrections will be much
appreciated.

Chocobo Melody (Final Fantasy Series)

--------------------------------------------------------------
1st PART
--------------------------------------------------------------

3-0-----3-0---0---0-|--------------------|-----0-3-5-6------------|
----1-------1---1---|-3-1-1-3-1---1------|-1-1--------------------|
------2-------------|-----------3--------|3-----------------------|
--------------------|--------------------|------------------------|
--------------------|--------------------|------------------------|
--------------------|--------------------|------------------------|

REPEAT 1st PART TWICE

--------------------------------------------------------------
2nd PART
--------------------------------------------------------------

5-1-------1-5-3-8-3-|3-5-1-------1-5-3-3-|-5-3-1-3---------------|
----3-0-3-----------|------3-0-3---------|-----------------------|
--------------------|--------------------|-----------------------|
--------------------|--------------------|-----------------------|
--------------------|--------------------|-----------------------|
--------------------|--------------------|-----------------------|

5-1-------1-5-3-8-3-|-5-----5------------|-----------------7-8---|
----3-0-3-----------|---8-8---8-5-8------|-5-8-8-8-8-10-11-------|
--------------------|--------------------|-----------------------|
--------------------|--------------------|-----------------------|
--------------------|--------------------|-----------------------|
--------------------|--------------------|-----------------------|

4 comments on Chocobo's Theme

yay chocobo!

yay chocobo!

I posted my first tab a

I posted my first tab a couple days ago. This one seems to be good. Although I think Archard posted a very similar version a while ago.

cool

5

cool

awesome

5

this is awesome, i may be doin it wrong because it doesnt seem to sound right in the second section of the first part

Oh nevermind xD i was just playing too slow, awesome tab im loving it!