Login or Register to remove this ad. | Advertise Here

Boss Battle Theme (Final Fantasy IV) Guitar Tab

Submitted: Oct 03, 2007 by Calebelijah (Last updated: Sep 20, 2009)

5
Average: 5 (7 votes)
Download | Listen
Game: Final Fantasy IV
Composer(s): Nobuo Uematsu
Style: 2 or more instruments, Transcription
Series: Final Fantasy

Click here for a video example.

AutoScroll: Slow | Medium | Fast
String Ensemble
     H         S  S  S S  S  S S  S     S H.           E.
E||----------------------------9-12-|--15------------------|
B||---------------------------------|----------------------|
G||--------------------9-12-15------|----------------------|
D||---------------------------------|----------------------|
A||-----------10-13-16--------------|----------------------|
E||---------------------------------|----------------------|

  H        S S S S S S S S       Q     Q     H
---------------------------||---------15----14--------|
-----------------------5-6-||-------------------------|
-----------------5-6-8-----||*--12--------------------|
-----------5-7-8-----------||*------------------------|
---------------------------||-------------------------|
---------------------------||-------------------------|

   Q     E   E   Q     E   E      E   H.           E
---L------------13------------|-----------------------|
--------15--16--------16--15--|--16--13---------------|
------------------------------|-----------------------|
------------------------------|-----------------------|
------------------------------|-----------------------|
------------------------------|-----------------------|

   Q     Q     Q     Q        W                   W
--------------------18----|--17----------------|--L----------------|
--13----15----16----------|--------------------|-------------------|
--------------------------|--------------------|-------------------|
--------------------------|--------------------|-------------------|
--------------------------|--------------------|-------------------|
--------------------------|--------------------|-------------------|

  W                    H        E   E   E   E      E   E  H.
--L----------------|---L--------L--14--15------|-----------------------|
-------------------|-----------------------16--|--15--13---------------|
-------------------|---------------------------|-----------------------|
-------------------|---------------------------|-----------------------|
-------------------|---------------------------|-----------------------|
-------------------|---------------------------|-----------------------|

  H        E   E   E   E      E   E   E   E  H           W
--------------------------|---------------------------|-------------------|
--------------------------|---------------------------|-------------------|
--------------11--12------|---------------------------|-------------------|
----------------------13--|--12--10--12--10-----------|-------------------|
--------------------------|---------------------------|-------------------|
--------------------------|---------------------------|-------------------|

   Q     Q     H            Q     E   E   Q     E   E      E   H.           E
--------15----14--------|---L------------13------------|-----------------------|
------------------------|--------15--16--------16--15--|--16--13---------------|
--12--------------------|------------------------------|-----------------------|
------------------------|------------------------------|-----------------------|
------------------------|------------------------------|-----------------------|
------------------------|------------------------------|-----------------------|

   Q     Q     Q     Q        W                   W
--------------------18----|--17----------------|--L----------------|
--13----15----16----------|--------------------|-------------------|
--------------------------|--------------------|-------------------|
--------------------------|--------------------|-------------------|
--------------------------|--------------------|-------------------|
--------------------------|--------------------|-------------------|

  W                    H        E   E   E   E      E   E  H.
--L----------------|---L--------L--14--15------|-----------------------|
-------------------|-----------------------16--|--15--13---------------|
-------------------|---------------------------|-----------------------|
-------------------|---------------------------|-----------------------|
-------------------|---------------------------|-----------------------|
-------------------|---------------------------|-----------------------|

  H        E   E   E   E      E   E   E   E  H
--------------------------|---------------------------|
--------------------------|---------------------------|
--------------11--12------|---------------------------|
----------------------13--|--12--10--12--10-----------|
--------------------------|---------------------------|
--------------------------|---------------------------|

  H         S  S  S  S  S  S  S  S     Q     Q     Q     Q
-----------------------------------|--13----16----15----16----|
-----------------------12-13-15-16-|--------------------------|
-----------------12-13-------------|--------------------------|
-----------13-15-------------------|--------------------------|
-----------------------------------|--------------------------|
-----------------------------------|--------------------------|

   E   E   E   E   Q     Q        E   E   H         E   E
--20--16--15--16--15----------|----------------------------|
------------------------18----|----------14--------14--16--|
------------------------------|--15--17--------------------|
------------------------------|----------------------------|
------------------------------|----------------------------|
------------------------------|----------------------------|

   Q.      E   E   E   E   E      Q     H.              W
--13------14--16--14--13--14--|--16----20------------|--L----------------|
------------------------------|----------------------|-------------------|
------------------------------|----------------------|-------------------|
------------------------------|----------------------|-------------------|
------------------------------|----------------------|-------------------|
------------------------------|----------------------|-------------------|

  W                   W                    W
--L----------------|--L----------------|--14----------------|
-------------------|-------------------|--------------------|
-------------------|-------------------|--------------------|
-------------------|-------------------|--------------------|
-------------------|-------------------|--------------------|
-------------------|-------------------|--------------------|

  W                    W                   W
--L----------------|--11----------------|--L----------------|
-------------------|--------------------|-------------------|
-------------------|--------------------|-------------------|
-------------------|--------------------|-------------------|
-------------------|--------------------|-------------------|
-------------------|--------------------|-------------------|

   W                   H         H            W
--10----------------|--L--------10--------|--13----------------|
--------------------|---------------------|--------------------|
--------------------|---------------------|--------------------|
--------------------|---------------------|--------------------|
--------------------|---------------------|--------------------|
--------------------|---------------------|--------------------|

  H         Q     Q        W                   W
--L--------13----15----|--16----------------|--L----------------|
-----------------------|--------------------|-------------------|
-----------------------|--------------------|-------------------|
-----------------------|--------------------|-------------------|
-----------------------|--------------------|-------------------|
-----------------------|--------------------|-------------------|

   E  Q     E  Q     E  E     E   E  Q     E  E   E  E
--15-------15-------15-----|-----15-------15-----15-------||
---------------------------|------------------------------||
---------------------------|----------------------------*-||
---------------------------|----------------------------*-||
---------------------------|------------------------------||
---------------------------|------------------------------||

Duration Legend
---------------
W - whole
H - half

Q - quarter
E - 8th
S - 16th
T - 32nd
X - 64th
. - note dotted
|-n-|  - n-tuplets

Tablature Legend
----------------
L - tied note





String Ensemble
                     W                      S S S S S S S S S S S S S S S S
E||-------|-------|-------------------||------------------------------------|
B||-------|-------|-------------------||--------------------7---------------|
G||-------|-------|-------------------||*-------8---7---8-------8---7---8---|
D||-------|-------|-------------------||*--10-------------------------------|
A||-------|-------|-------------------||------------------------------------|
E||-------|-------|-------------------||------------------------------------|

   S S S S S S S S S S  S S S S  S S     S S S S S S S S S S S S S S S S
-------------------------------------|-----------------------------------|
-------------------------------------|-------------------7---------------|
-------8---7---8---7---10---8---10---|-------8---7---8-------8---7---8---|
--10---------------------------------|--10-------------------------------|
-------------------------------------|-----------------------------------|
-------------------------------------|-----------------------------------|

  Q     Q    Q     Q        W                    W
------------------11----|--11----------------|--10----------------|
-------------8----------|--------------------|--------------------|
--8----10---------------|--------------------|--------------------|
------------------------|--------------------|--------------------|
------------------------|--------------------|--------------------|
------------------------|--------------------|--------------------|

  W                   W                   E  E  H.
--9----------------|--8----------------|---------------------|
-------------------|-------------------|--7--8---------------|
-------------------|-------------------|---------------------|
-------------------|-------------------|---------------------|
-------------------|-------------------|---------------------|
-------------------|-------------------|---------------------|

  W                   E  E  E  E  H           W
-------------------|-----------------------|-------------------|
-------------------|-----------------------|-------------------|
-------------------|-----------------------|-------------------|
-------------------|--4--5--4--5-----------|-------------------|
-------------------|-----------------------|-------------------|
-------------------|-----------------------|-------------------|

   S S S S S S S S S S S S S S S S     S S S S S S S S S S  S S S S  S S
-----------------------------------|-------------------------------------|
-------------------7---------------|-------------------------------------|
-------8---7---8-------8---7---8---|-------8---7---8---7---10---8---10---|
--10-------------------------------|--10---------------------------------|
-----------------------------------|-------------------------------------|
-----------------------------------|-------------------------------------|

   S S S S S S S S S S S S S S S S    Q     Q    Q     Q
-----------------------------------|------------------11----|
-------------------7---------------|-------------8----------|
-------8---7---8-------8---7---8---|--8----10---------------|
--10-------------------------------|------------------------|
-----------------------------------|------------------------|
-----------------------------------|------------------------|

   W                    W                   W
--11----------------|--10----------------|--9----------------|
--------------------|--------------------|-------------------|
--------------------|--------------------|-------------------|
--------------------|--------------------|-------------------|
--------------------|--------------------|-------------------|
--------------------|--------------------|-------------------|

  W                   E  E  H.              W
--8----------------|---------------------|-------------------|
-------------------|--7--8---------------|-------------------|
-------------------|---------------------|-------------------|
-------------------|---------------------|-------------------|
-------------------|---------------------|-------------------|
-------------------|---------------------|-------------------|

  E  E  E  E  H           H        S S S S S  S S S    H         H
-----------------------|------------------------7-8-|--9--------11--------|
-----------------------|-----------------6-8-10-----|---------------------|
-----------------------|-----------5-7-8------------|---------------------|
--4--5--4--5-----------|----------------------------|---------------------|
-----------------------|----------------------------|---------------------|
-----------------------|----------------------------|---------------------|

   H         H            W                    W
--13--------11--------|--------------------|--------------------|
----------------------|--------------------|--11----------------|
----------------------|--11----------------|--------------------|
----------------------|--------------------|--------------------|
----------------------|--------------------|--------------------|
----------------------|--------------------|--------------------|

   W                    Q     H.              W
--------------------|--13----16------------|--L----------------|
--13----------------|----------------------|-------------------|
--------------------|----------------------|-------------------|
--------------------|----------------------|-------------------|
--------------------|----------------------|-------------------|
--------------------|----------------------|-------------------|

  W                   W                   W                   W
--L----------------|--6----------------|--L----------------|-------------------|
-------------------|-------------------|-------------------|--7----------------|
-------------------|-------------------|-------------------|-------------------|
-------------------|-------------------|-------------------|-------------------|
-------------------|-------------------|-------------------|-------------------|
-------------------|-------------------|-------------------|-------------------|

  W                   W                   H        Q    Q
-------------------|--5----------------|--L--------5----5----|
--L----------------|-------------------|---------------------|
-------------------|-------------------|---------------------|
-------------------|-------------------|---------------------|
-------------------|-------------------|---------------------|
-------------------|-------------------|---------------------|

  W                   H        Q    Q       W
--5----------------|--L--------5----7----|--8----------------|
-------------------|---------------------|-------------------|
-------------------|---------------------|-------------------|
-------------------|---------------------|-------------------|
-------------------|---------------------|-------------------|
-------------------|---------------------|-------------------|

  W                   E  Q    E  Q    E  E     E  E  Q    E  E  E  E
--L----------------|--8-------8-------8-----|-----8-------8-----8-------||
-------------------|------------------------|---------------------------||
-------------------|------------------------|-------------------------*-||
-------------------|------------------------|-------------------------*-||
-------------------|------------------------|---------------------------||
-------------------|------------------------|---------------------------||

Duration Legend
---------------
W - whole
H - half
Q - quarter
E - 8th
S - 16th
T - 32nd
X - 64th
. - note dotted
|-n-|  - n-tuplets

Tablature Legend
----------------
L - tied note





Trumpet
     W                   W                   W
E||-------------------|-------------------|-------------------|
B||-------------------|-------------------|-------------------|
G||-------------------|-------------------|-------------------|
D||-------------------|-------------------|-------------------|
A||-------------------|-------------------|-------------------|
E||-------------------|-------------------|-------------------|

    S S S E.  S S S S S E.  S S    S S S E.  S S S S S E.  S S
|-------------------------------|------------------------------|
|-------------------------------|------------------------------|
|*------------------------------|------------------------------|
|*--1---1-----1---1---1-----1---|--1---1-----1---3---3-----3---|
|-------------------------------|------------------------------|
|-------------------------------|------------------------------|

  S S S E.  S S S S S E.  S S    Q    Q    Q    Q       W
------------------------------|----------------------|--2----------------|
------------------------------|-----------------4----|-------------------|
------------------------------|------------0---------|-------------------|
--1---1-----1---1---1-----1---|--1----3--------------|-------------------|
------------------------------|----------------------|-------------------|
------------------------------|----------------------|-------------------|

  W                   W                   W                   W
--1----------------|--0----------------|-------------------|-------------------|
-------------------|-------------------|--4----------------|-------------------|
-------------------|-------------------|-------------------|-------------------|
-------------------|-------------------|-------------------|-------------------|
-------------------|-------------------|-------------------|-------------------|
-------------------|-------------------|-------------------|-------------------|

  W                   H        H           H        H
-------------------|--------------------|--------------------|
-------------------|--------------------|--------------------|
-------------------|--0-----------------|--------------------|
-------------------|-----------3--------|--1--------0--------|
-------------------|--------------------|--------------------|
-------------------|--------------------|--------------------|

  S S S E.  S S S S S E.  S S    S S S E.  S S S S S E.  S S
------------------------------|------------------------------|
------------------------------|------------------------------|
------------------------------|------------------------------|
--1---1-----1---1---1-----1---|--1---1-----1---3---3-----3---|
------------------------------|------------------------------|
------------------------------|------------------------------|

  S S S E.  S S S S S E.  S S    Q    Q    Q    Q       W
------------------------------|----------------------|--2----------------|
------------------------------|-----------------4----|-------------------|
------------------------------|------------0---------|-------------------|
--1---1-----1---1---1-----1---|--1----3--------------|-------------------|
------------------------------|----------------------|-------------------|
------------------------------|----------------------|-------------------|

  W                   W                   W                   W
--1----------------|--0----------------|-------------------|-------------------|
-------------------|-------------------|--4----------------|-------------------|
-------------------|-------------------|-------------------|-------------------|
-------------------|-------------------|-------------------|-------------------|
-------------------|-------------------|-------------------|-------------------|
-------------------|-------------------|-------------------|-------------------|

  W                   H        H           H        H
-------------------|--------------------|--------------------|
-------------------|--------------------|--------------------|
-------------------|--0-----------------|--------------------|
-------------------|-----------3--------|--1--------0--------|
-------------------|--------------------|--------------------|
-------------------|--------------------|--------------------|

  S S S Q    S S S S Q    S    S S S Q    S S S S Q    S    W
----------------------------|----------------------------|-------------------|
----------------------------|----------------------------|-------------------|
---------------0---0--------|--1---1--------0---0--------|-------------------|
--3---3---------------------|----------------------------|--4----------------|
----------------------------|----------------------------|-------------------|
----------------------------|----------------------------|-------------------|

  H        Q    Q       W                   W
---------------------|-------------------|-------------------|
---------------------|-------------------|-------------------|
-----------3----3----|--1----------------|--L----------------|
--4------------------|-------------------|-------------------|
---------------------|-------------------|-------------------|
---------------------|-------------------|-------------------|

  W                   Q    H.              S S S S S S S S S S S S S S S S
-------------------|-------8------------|----------------------------------|
-------------------|--9-----------------|----------------------------------|
--L----------------|--------------------|----------------------------------|
-------------------|--------------------|--4---4-4-4---4-4-4---4-4-4---4-4-|
-------------------|--------------------|----------------------------------|
-------------------|--------------------|----------------------------------|

  S S S S S S S S S S S S S S S S    S S S S S S S S S S S S S S S S
----------------------------------|----------------------------------|
----------------------------------|----------------------------------|
----------------------------------|----------------------------------|
--4---4-4-4---4-4-4---4-4-4---4-4-|--4---4-4-4---4-4-4---4-4-4---4-4-|
----------------------------------|----------------------------------|
----------------------------------|----------------------------------|

  S S S S S S S S S S S S S S S S    S S S S S S S S S S S S S S S S
----------------------------------|----------------------------------|
----------------------------------|----------------------------------|
----------------------------------|----------------------------------|
--4---4-4-4---4-4-4---4-4-4---4-4-|--4---4-4-4---4-4-4---4-4-4---4-4-|
----------------------------------|----------------------------------|
----------------------------------|----------------------------------|

  S S S S S S S S Q    Q       W                   H        Q    Q
----------------------------|-------------------|---------------------|
----------------------------|-------------------|---------------------|
----------------------------|-------------------|---------------------|
--4---4-4-4---4-4-4----4----|--3----------------|--L--------3----3----|
----------------------------|-------------------|---------------------|
----------------------------|-------------------|---------------------|

  W                   H        S S S S S S S S    E  Q    E  Q    E  E
-------------------|---------------------------|--1-------1-------1-----|
-------------------|---------------------1-3-4-|------------------------|
-------------------|---------------0-1-3-------|------------------------|
--1----------------|--L--------1-3-------------|------------------------|
-------------------|---------------------------|------------------------|
-------------------|---------------------------|------------------------|

  E  E  Q    E  E  E  E
-----1-------1-----1-------||
---------------------------||
-------------------------*-||
-------------------------*-||
---------------------------||
---------------------------||

Duration Legend
---------------
W - whole
H - half
Q - quarter
E - 8th
S - 16th
T - 32nd
X - 64th
. - note dotted
|-n-|  - n-tuplets

Tablature Legend
----------------
L - tied note

4 comments on Boss Battle Theme

Sweet

5

I don't really know what to say, that was gooooood.

Off key...

It's crazy off key, listening to the midi, or perhaps guitarpro imported it wrong but that's never happened before. I mean, the chords, they're... They sound odd

Really? I didn't think it

Really? I didn't think it was possible to import a MIDI in GP and get something usable.

Got it to work

2

In GuitarPro6 you go to file-->import--> midi

It sounded funny cuz the RSE was on and the midi wasn't meant for RSE. Explains it, sounds a lot better now.