Login or Register to remove this ad. | Advertise Here

Main Theme (Donkey Kong Country) Bass/Guitar Tab

Submitted: Dec 07, 2008 by hslesperance (Last updated: Jun 18, 2011)

4.42857
Average: 4.4 (7 votes)
Download | Listen
Game: Donkey Kong Country
Composer(s): Dave Wise, Robin Beanland, Eveline Fischer
Style: 2 or more instruments, Transcription
Series: Donkey Kong

AutoScroll: Slow | Medium | Fast
Main Theme
Donkey Kong Country
Composed by David Wise, Eveline Fischer and Robin Beanland
Tabbed by hslesperance
12/9/08

Standard Tuning


Guitar 1

e-------5---------------------------6----------5-------------
B----------------6-8-6-----------------------8---8-5---------
G---5-5----------------7--------7-7--------------------------
D------------------------------------------------------------
A------------------------------------------------------------
E------------------------------------------------------------

e-------8--------------8--10---------------------------------
B---5-5----------10-11-----------------8-10-----------8------
G-----------------------------------10-----------9-10--------
D------------------------------------------------------------
A------------------------------------------------------------
E------------------------------------------------------------

e------------------------------------------------------------
B-------8/10------6-6/8-6------------11------8-8/10-8--------
G---7-7-------------------7------7-7------------------9------
D------------------------------------------------------------
A------------------------------------------------------------
E------------------------------------------------------------

e-------6/8------------8-8/10--------------------------------
B---5-5----------10-11----------------8-8/10-----------------
G----------------------------------10-----------9-10-10/12-10
D------------------------------------------------------------
A------------------------------------------------------------
E------------------------------------------------------------

e------------------------------------------------------------
B------------------------------------------------------------
G------14-------12-14-12-----------------15----12-15---------
D---12-------15-------------15-12----------------------------
A------------------------------------------------------------
E------------------------------------------------------------

e------------------------------------------------------------
B------------13----------------------------------------------
G---12-14-15-------15-14-----15-14---------------------------
D------------------------------------------------------------
A------------------------------------------------------------
E------------------------------------------------------------

e------------------------------------------------------------
B------------------------------------------------------------
G------14-------12-14-12-----------------15----12-15---------
D---12-------15-------------15-12----------------------------
A------------------------------------------------------------
E------------------------------------------------------------

e------------------------------------------------------------
B------------13----------------------------------------------
G---12-14-15-------15-14-----15-14---------------------------
D------------------------------------------------------------
A------------------------------------------------------------
E------------------------------------------------------------


Guitar 2

e------------------------------------------------------------
B------------------------------------------------------------
G-------2---2----------0---0---0--3-0-3-0-3-0------0-2-0-2---
D---3-3---3---3----0-3---3---3-------------------2-----------
A------------------------------------------------------------
E------------------------------------------------------------

e---------0-------0-------1-------1--------------------------
B-----------1---1---1---1---3---3---3---3-1---1---1----------
G---0-2-2-----2-------2-------3-------3-----2--2-2-----------
D-----------------------------------------------3------------
A------------------------------------------------------------
E------------------------------------------------------------


Guitar 3

e------------------------------------------------------------
B------------------------------------------------------1-----
G-------------------------------------3------3--3------------
D---3------3--3------0------5--5-----------------------------
A------------------------------------------------------------
E------------------------------------------------------------

e------------------------------------------------------------
B---1--1------1-------------------3--------------------------
G------------------2-------------------3--------------2------
D-----------------------3-------------------5----------------
A----------------------------3-------------------5-----------
E------------------------------------------------------------


Bass

G------------------------------------------------------------
D------------------------------------------------------------
A---5---5---5---5--3--4--5---5---5--5--3--4------------------
E------------------------------------------------------------

G------------------------------------------------------------
D--------------------------------------5--3------------------
A---5---5---5---5--3--4--5---5---5--5------------------------
E------------------------------------------------------------

G------------------------------------------------------------
D--------------------------------------5--3------------------
A---5---5---5---5--3--4--5---5---5--5------------------------
E------------------------------------------------------------

G------------------------------------------------------------
D------------------------------------------------------------
A---5---5---5---5--3--5--------------------------------------
E------------------------6---6---6--6--5--6------------------

G------------------------------------------------------------
D------------------------------------------------------------
A------------------------3---3---3--3--1--3------------------
E---3---3---3---3--1--3--------------------------------------

G------------------------------------------------------------
D------------------------------------------------------------
A------------------------------------------------------------
E---5---5---5---5--3--5--6---6---6--6--5--6------------------

G------------------------------------------------------------
D------------------------------------------------------------
A-----------3---3--1--3--------------------------------------
E---1---1----------------------------------------------------

G------------------------------------------------------------
D--------------------------------------5--3------------------
A---5---5---5---5--3--4--5---5---5--5------------------------
E------------------------------------------------------------

G------------------------------------------------------------
D--------------------------------------5--3------------------
A---5---5---5---5--3--4--5---5---5--5------------------------
E------------------------------------------------------------

G------------------------------------------------------------
D--------------------------------------5--3------------------
A---5---5---5---5--3--4--5---5---5--5------------------------
E------------------------------------------------------------

G------------------------------------------------------------
D--------------------------------------5--3------------------
A---5---5---5---5--3--4--5---5---5--5------------------------
E------------------------------------------------------------

G------------------------------------------------------------
D------------------------------------------------------------
A---5---5---5---5--3--5--------------------------------------
E------------------------6---6---6--6--5--6------------------

G------------------------------------------------------------
D------------------------------------------------------------
A------------------------3---3---3--3--1--3------------------
E---3---3---3---3--1--3--------------------------------------

G------------------------------------------------------------
D------------------------------------------------------------
A---5---5---5---5--3--5--------------------------------------
E------------------------6---6---6--6--5--6------------------

G------------------------------------------------------------
D------------------------------------------------------------
A------------------------3---3---3--3--1--3------------------
E---3---3---3---3--1--3--------------------------------------

Return to second staff


/ - slide up

2 comments on Main Theme

thanks for putting this tab

thanks for putting this tab up here! Sounds perfect.

sound good =D but...

i think this part will sounds better if u do this

B --------------8------
G --------9-10-----10--