Login or Register to remove this ad. | Advertise Here

Gangplank Galleon (Donkey Kong Country) Guitar Tab

Submitted: Oct 03, 2007 by archard (Last updated: Aug 05, 2008)

4.416665
Average: 4.4 (12 votes)
Download | Listen
Game: Donkey Kong Country
Composer(s): Dave Wise, Robin Beanland, Eveline Fischer
Style: Transcription
Series: Donkey Kong

AutoScroll: Slow | Medium | Fast
Gangplank Galleon
Donkey Kong Country
Composed by Dave Wise
Tabbed by Richard Schaefer (richard@gametabs.net)
9/30/06

e------------------------5-----8---6
B--6-5-------5-6-5---5-6---6--------
G------7-5-7-------7----------------
D-----------------------------------
A-----------------------------------
E-----------------------------------

e-------------------------------8---------------------------------------
B--10--10-8-10--10-8-10-8-10-11---11-----------------------------8-10---
G--------------------------------------10--10-9-10--10-9-10-9-10------10
D-----------------------------------------------------------------------
A-----------------------------------------------------------------------
E-----------------------------------------------------------------------

e-------------------------------8-----------------------------------8--------
B--10--10-8-10--10-8-10-8-10-11---11-10-8------------10----------10---10-----
G-----------------------------------------10-9-10-12----12-10-12-----------9b
D----------------------------------------------------------------------------
A----------------------------------------------------------------------------
E----------------------------------------------------------------------------

e------------------------------------------------------------------
B----------------------5-6--------------------------10-11-10-8-----
G--7--7-5-7--7-5-7-5-7-----7-----------------------------------10-9
D------------------------------10--10-8-10-8-7-8-10----------------
A------------------------------------------------------------------
E------------------------------------------------------------------

e-------------------------------------------------------------
B----------------------5-6-----------5-6-----8-6---6-10-8-----
G--7--7-5-7--7-5-7-5-7-----7---7-5-7-----7-------9--------10-9
D-------------------------------------------------------------
A-------------------------------------------------------------
E-------------------------------------------------------------

e---------8----------------------------------------8---------8--------8--10--
B--10---------------10--8-------------------10-------------------------------
G------------10---------------9--7--------------------10--------9------------
D----------------------------------------------------------------------------
A----------------------------------------------------------------------------
E----------------------------------------------------------------------------

e---------------8---------8--------8--10
B--------10-----------------------------
G------------------10--------9----------
D---------------------------------------
A---------------------------------------
E---------------------------------------

e-------------------------------8-
B--10-10p8p10-10p8p10p8h10p8p10---
G---------------------------------
D---------------------------------
A---------------------------------
E---------------------------------

e-------------------------------8-
B---------------------------------
G--10-10p9h10-10p9h10p9h10p9h10---
D---------------------------------
A---------------------------------
E---------------------------------

e-----------------------------
B--8-8p6h8-8p6h8p6h8p6h8-10-10
G-----------------------------
D-----------------------------
A-----------------------------
E----------------------------- x2

That's about it. There isn't anything else in the
song that isn't covered in this tab.

7 comments on Gangplank Galleon

Great tab, video game tabs

Great tab, video game tabs are the only ones I can find that have an understandable midi with them... And by the way... Is there any way you could change the mp3 to a midi? It wouldn't take so long to download... Just a thought. Thanks!

sweet song, and the tabs are

5

sweet song, and the tabs are right on, i'm gonna see if the rest of my band is up for this

u 4got the harmony

4

u 4got the harmony

im not sure how these work,

im not sure how these work, im new to them, i get the string numbers and what to use the fret on them, but i dont get the whole - and 10p9h10 thing help please!

10p9h10 just means 10 then

10p9h10 just means 10 then pull off 9, hammer on 10

awesome tab! been lookinfg 4

5

awesome tab! been lookinfg 4 it for some time,along with other video game tabs and when i found this site it was heaven! :)
great job as always!

e---------8------------------

5
e---------8----------------------------------------8---------8--------8--10--
B--10---------------10--8-------------------10------------------8------------
G------------10---------------9--7--------------------10---------------------
D----------------------------------------------------------------------------
A----------------------------------------------------------------------------
E----------------------------------------------------------------------------

i'd say that the second G-9 should be B-8 like that, sounds better imo.
great tab anyways! :D