Login or Register to remove this ad. | Advertise Here

Cranky's Cabin (Donkey Kong Country) Guitar Tab

Submitted: Oct 03, 2007 by archard (Last updated: Aug 05, 2008)

4.6875
Average: 4.7 (16 votes)
Download | Listen
Game: Donkey Kong Country
Composer(s): Dave Wise, Robin Beanland, Eveline Fischer
Style: Transcription
Series: Donkey Kong

AutoScroll: Slow | Medium | Fast
Cranky's Cabin
Donkey Kong Country
Composed by Dave Wise
Tabbed by Richard Schaefer (richard@gametabs.net)
8/2/06

e------5---1-3-1-----------6---3-5-3-0-----0-0-8---5-6-8-10---1-3-5---0-1-3-1
B--1-1-----------3-----3-3---------------------------------------------------
G----------------------------------------------------------------------------
D----------------------------------------------------------------------------
A----------------------------------------------------------------------------
E----------------------------------------------------------------------------

e--5-5-5-3-1-1-------6-6-6-5-3-0-0-1-3--0-------
B--------------3--------------------------3-1---
G-----------------------------------------------
D-----------------------------------------------
A-----------------------------------------------
E-----------------------------------------------

e--8-8-8-6-5-6-6-8-10---1-3-5-1---0-1-3-1
B----------------------------------------
G----------------------------------------
D----------------------------------------
A----------------------------------------
E----------------------------------------

8 comments on Cranky's Cabin

Great tab, great game

Great tab, great game

I really love this song and

I really love this song and u make me really happy with this nice tab

ah yes i remember

ah yes i remember this!
pretty spot on man, thank god for those midi files too
wish all tab sites were like this

cheers

i love this..

4

i love this..

Cool! I knew the first

5

Cool! I knew the first part, but I never did the second.
So - Thnkz Alot!

I love this song

5

GJ man

Sublime

5

Wonderful. Sounds perfect.

Love it :D

5

Just great for my playing level :D
Thanks