Login or Register to remove this ad. | Advertise Here

Bonus Stage (Donkey Kong Country) Guitar Tab

Submitted: Oct 03, 2007 by archard (Last updated: Aug 05, 2008)

4.285715
Average: 4.3 (7 votes)
Download | Listen
Game: Donkey Kong Country
Composer(s): Dave Wise, Robin Beanland, Eveline Fischer
Style: Transcription
Series: Donkey Kong

AutoScroll: Slow | Medium | Fast
Bonus Stage
Donkey Kong Country
Composed by Dave Wise
Tabbed by Richard Schaefer (richard@gametabs.net)
8/19/06

e----------------0-0-1-0-------0-0-0------------------------0----
B------0-1-3-------------1-----------3-1--3-3-3-1-0-1-1-1-3---3-1
G--0-0-----------------------------------------------------------
D----------------------------------------------------------------
A----------------------------------------------------------------
E----------------------------------------------------------------

e-----0--3-----4--5--7-----8-10-8-10h11-10-8-5---
B--4---------------------------------------------
G------------------------------------------------
D------------------------------------------------
A------------------------------------------------
E------------------------------------------------

e--11-12-15-12-11-10-8-----6-7-10-7-6-5-3-----5-8-10-11-10-8
B-----------------------------------------------------------
G-----------------------------------------------------------
D-----------------------------------------------------------
A-----------------------------------------------------------
E-----------------------------------------------------------

1 comment on Bonus Stage

looks pretty good! when i

looks pretty good!

when i play it makes me renember the game!

damn! it was so good!