Login or Register to remove this ad. | Advertise Here

Stickerbrush Symphony (Donkey Kong Country 2) Bass Tab

Submitted: Mar 06, 2008 by archard (Last updated: Aug 05, 2008)

3
Average: 3 (2 votes)
Download | Listen
Game: Donkey Kong Country 2
Composer(s): Dave Wise
Style: Arrangement
Series: Donkey Kong

AutoScroll: Slow | Medium | Fast
Stickerbrush Symphony
Donkey Kong Country 2
Composed by Dave Wise
Tabbed by Richard Schaefer (richard@gametabs.net)
3/6/08

Bass


     W                   W                   W                 
G||--2----------------|--L----------------|--5----------------|
D||-------------------|-------------------|-------------------|
A||-------------------|-------------------|-------------------|
D||-------------------|-------------------|-------------------|


  W                   W                   W                   W                 
--L----------------|--2----------------|--L----------------|-------------------|
-------------------|-------------------|-------------------|-------------------|
-------------------|-------------------|-------------------|--3----------------|
-------------------|-------------------|-------------------|-------------------|


  W                   W                   W                   W                 
-------------------|-------------------|-------------------|-------------------|
-------------------|--3----------------|-------------------|--2----------------|
--L----------------|-------------------|--2----------------|-------------------|
-------------------|-------------------|-------------------|-------------------|


  H        H           W                   W                 
--2--------0--------|-------------------|-------------------|
--------------------|--3----------------|-------------------|
--------------------|-------------------|--2----------------|
--------------------|-------------------|-------------------|


  W                   H        H           W                 
-------------------|--2--------0--------|-------------------|
--2----------------|--------------------|--3----------------|
-------------------|--------------------|-------------------|
-------------------|--------------------|-------------------|


  W                   W                   H        H         
-------------------|-------------------|--2--------0--------|
-------------------|--2----------------|--------------------|
--2----------------|-------------------|--------------------|
-------------------|-------------------|--------------------|


  W                   W                   W                 
-------------------|-------------------|-------------------|
--3----------------|-------------------|--2----------------|
-------------------|--2----------------|-------------------|
-------------------|-------------------|-------------------|


  H        H           H        Q    Q       H        Q    Q     
--2--------0--------|---------------------|---------------------|
--------------------|----------------0----|----------------2----|
--------------------|-----------0---------|-----------2---------|
--------------------|--0------------------|--2------------------|


  H        Q    Q       H        Q    Q       S S S S S S S S S S S S S S S S  
---------------------|---------------------|--------------------------2---2---|
----------------3----|----------------5----|----------------------------2---2-|
-----------3---------|-----------5---------|--0-0-0-0-0-0-0-0-0-0-0-0---------|
--3------------------|--5------------------|----------------------------------|


  S S S S S S S S S S S S S S S S    S S S S S S S S S S S S S S S S  
--------------------------2---2---|--------------------------5---5---|
----------------------------2---2-|----------------------------5---5-|
--0-0-0-0-0-0-0-0-0-0-0-0---------|--3-3-3-3-3-3-3-3-3-3-3-3---------|
----------------------------------|----------------------------------|


  S S S S S S S S S S S S S S S S    S S S S S S S S S S S S S S S S  
--------------------------5---5---|--------------------------2---2---|
----------------------------5---5-|----------------------------2---2-|
--3-3-3-3-3-3-3-3-3-3-3-3---------|--0-0-0-0-0-0-0-0-0-0-0-0---------|
----------------------------------|----------------------------------|


  S S S S S S S S S S S S S S S S    S S S S S S S S S S S S S S S S  
--------------------------2---2---|--------------------------5---5---|
----------------------------2---2-|----------------------------5---5-|
--0-0-0-0-0-0-0-0-0-0-0-0---------|--3-3-3-3-3-3-3-3-3-3-3-3---------|
----------------------------------|----------------------------------|


  S S S S S S S S S S S S S S S S    S S S S S S S S S S S S S S S S  
--------------------------5---5---|----------------------------------|
----------------------------5---5-|--------------------------3---3---|
--3-3-3-3-3-3-3-3-3-3-3-3---------|----------------------------3---3-|
----------------------------------|--3-3-3-3-3-3-3-3-3-3-3-3---------|


  S S S S S S S S S S S S S S S S    S S S S S S S S S S S S S S S S  
--------------------------4---4---|----------------------------------|
----------------------------3---3-|--------------------------2---2---|
--2-2-2-2-2-2-2-2-2-2-2-2---------|----------------------------2---2-|
----------------------------------|--2-2-2-2-2-2-2-2-2-2-2-2---------|


  S S S S S S S S S S S S S S S S    S S S S S S S S S S S S S S S S  
--------------2-------------------|----------------------------------|
----------------2-------------5---|--------------------------3---3---|
--0-0-0-0-0-0-------------------5-|----------------------------3---3-|
------------------5-5-5-5-5-5-----|--3-3-3-3-3-3-3-3-3-3-3-3---------|


  S S S S S S S S S S S S S S S S    S S S S S S S S S S S S S S S S  
--------------------------4---4---|----------------------------------|
----------------------------3---3-|--------------------------2---2---|
--2-2-2-2-2-2-2-2-2-2-2-2---------|----------------------------2---2-|
----------------------------------|--2-2-2-2-2-2-2-2-2-2-2-2---------|


  S S S S S S S S S S S S S S S S    S S S S S S S S S S S S S S S S  
--------------2-------------------|----------------------------------|
----------------2-------------5---|--------------------------0---0---|
--0-0-0-0-0-0-------------------5-|----------------------------0---0-|
------------------5-5-5-5-5-5-----|--0-0-0-0-0-0-0-0-0-0-0-0---------|


  S S S S S S S S S S S S S S S S    S S S S S S S S S S S S S S S S  
----------------------------------|----------------------------------|
--------------------------2---2---|--------------------------3---3---|
----------------------------2---2-|----------------------------3---3-|
--2-2-2-2-2-2-2-2-2-2-2-2---------|--3-3-3-3-3-3-3-3-3-3-3-3---------|


  S S S S S S S S S S S S S S S S    S S S S S S S S S S S S S S S S  
----------------------------------|----------------------------------|
--------------------------5---5---|--------------------------0---0---|
----------------------------5---5-|----------------------------0---0-|
--5-5-5-5-5-5-5-5-5-5-5-5---------|--0-0-0-0-0-0-0-0-0-0-0-0---------|


  S S S S S S S S S S S S S S S S    S S S S S S S S S S S S S S S S  
----------------------------------|----------------------------------|
--------------------------2---2---|--------------------------3---3---|
----------------------------2---2-|----------------------------3---3-|
--2-2-2-2-2-2-2-2-2-2-2-2---------|--3-3-3-3-3-3-3-3-3-3-3-3---------|


  S S S S S S S S S S S S S S S S         
----------------------------------|-----||
--------------------------5---5---|----*||
----------------------------5---5-|----*||
--5-5-5-5-5-5-5-5-5-5-5-5---------|-----||




Duration Legend
---------------
W - whole
H - half
Q - quarter
E - 8th
S - 16th


Tablature Legend
----------------
L - tied note