Login or Register to remove this ad. | Advertise Here

Wind Scene (Chrono Trigger) Guitar Tab

Submitted: Oct 03, 2007 by Kabukibear (Last updated: Sep 19, 2009)

4.913045
Average: 4.9 (46 votes)
Download | Listen
Game: Chrono Trigger
Composer(s): Nobuo Uematsu, Yasunori Mitsuda, Noriko Matsueda
Style: Arrangement, Fingerstyle
Series: Chrono

This song is also called 600 A.D.

AutoScroll: Slow | Medium | Fast
Wind Scene
~Chrono Trigger~
Composed by: Yasunori Mitsuda
Arranged by: Justin Lincoln

Drop D Tuning

     Q    Q       E  E  E  E  E  E  E  E     E  E  E  E  E  E  E  E
E||-------0----|--1--0--------------------|--------------------------|
B||--3---------|--------1-----3--------3--|--1-----------------------|
G||------------|-----------2--------3-----|-----2-----0--2-----0-----|
D||------------|--------2--------3--------|--------3--------3-----2--|
A||------------|-----0--------1-----------|--0-----3-----------------|
D||------------|--0-----------------------|--------------3-----2-----|

                           ^
  E  E  E  E  Q    Q       E  E  E  E  Q    Q       E  E  E  E  E  E  E  E
--------------0---------|-------------------0----|--1--0--------------------|
-----------1-------6----|--1--------1--1---------|--------1-----3--------3--|
--------2-----5---------|--0-----0-----0---------|-----------2--------3-----|
--2--3--2---------------|--3--3--------2---------|--------2--------3--------|
------------------------|--3-----------3---------|-----0--------1-----------|
--0-----------5---------|------------------------|--0-----------------------|

  E  E  E  E  E  E  E  E     E  E  E  E  E  E  E  E     Q    E  E  Q    Q
--------------------------|--------------0-----------|------------------0----|
--1-----------------------|-----------1-----3--1--3--|--3----3-----3---------|
-----2-----0--2-----0-----|--------2-----0-----2-----|--2----2-----2---------|
--------3--------3-----2--|--2--3--2-----------------|--5----5-----4---------|
--0-----3-----------------|--------------------0-----|-----------------------|
--------------3-----2-----|--0-----------5-----------|--0----0--0--0---------|

  ^           ^            ^                ^                   ^
  E  E  E  E  Q.     E     E  E  E  E  Q    Q       E  E  E  E  Q    Q
--1--0------------------|------------------------|--------------0---------|
--3-----1-----3------3--|--1---------------------|-----------1--0----6----|
--2--------2------------|-----2-----0--2----0----|--------2-----0---------|
--------------3---------|--2-----3-----3----2----|--2--3------------------|
--------------1---------|--0-----3-----3----4----|--0---------------------|
--0---------------------|------------------------|--0-----------5---------|

  ^                     ^           ^            ^                ^
  H        Q    Q       E  E  E  E  Q.     E     E  E  E  E  Q    Q
----------------0----|--1--0------------------|------------------------|
--1------------------|--3-----1-----3------3--|--1---------------------|
--0------------------|--2--------2------------|-----2-----0--2----0----|
--3--------2---------|--------------3---------|--2-----3-----3----2----|
--3------------------|--------------1---------|--0-----3-----3----4----|
---------------------|--0---------------------|------------------------|

              ^              ^
  E  E  E  E  E  E  E  E     H        Q.      E      E  E  E  E  E  E   E  E
--------------0-----------|----------------------|----------------------------|
-----------1--0--3--1--3--|--3---------------10--|--10-----------8------------|
--------2-----0-----2-----|--0-------------------|---------------------10-----|
--2--3--------------------|--0--------4----------|---------8------------------|
--0-----------------0-----|--0-------------------|------8-----8-----8------8--|
--0-----------5-----------|--0-------------------|---8------------------------|

  E  E  E  E   E  E  E  E     E  E  E  E  E  E  E  E
---------------------------|--0-----------0-----------|
---------------------8-----|--------------------1-----|
--9-----------10-----------|--------2-----------------|
--------8------------------|-----2-----2-----2-----2--|
-----8-----8------8--------|--0-----------------------|
--8---------------------8--|--------------------------|

  ^
  E  E  E  E  E  E  E  E     E  E  E  E  E  E  E  E
--------------------------|--------------------------|
--------------------1-----|--------------------------|
--2--------------------2--|--3--------3--5-----7-----|
--3-----2-----3-----------|--------5-----------------|
-----0-----0-----0--------|-----5-----------5-----5--|
--0-----------------------|--5-----------5-----------|

                                                        ^
  E  E  E  E  E  E  E  E     E  E  E  E  E  E  E  E     Q.     E  E  E  E  E
--0-----------1-----3-----|--0-----------------------|------------------------|
-----------1--------------|--------------------------|--1---------------------|
--------2-----------------|--------2-----0-----2-----|--2---------0--2--3--5--|
-----2-----------2-----2--|--------------------------|--1------3--------------|
--0-----------------------|-----3-----3-----3-----3--|--3---------------------|
--------------------------|--3-----------------------|--3---------------------|

   E  E  E  E  E  E   E  E     E  E  E  E   E  E  E  E
----------------------------|---------------------------|
--10-----------8------------|---------------------8-----|
---------------------10-----|--9-----------10-----------|
---------8------------------|--------8------------------|
------8-----8-----8------8--|-----8-----8------8--------|
---8------------------------|--8---------------------8--|

  E  E  E  E  E  E  E  E     E  E  E  E  E  E  E  E
--5-----------3-----1-----|--0-----------0-----1-----|
--------0-----------------|--------3-----------------|
-----0-----0-----0-----0--|-----0-----0-----0-----0--|
--------------------------|--------------------------|
--2-----------------------|--2-----------2-----------|
--------------------------|--------------------------|

  E  E  E  E  E  E  E  E     E  E  E  E  E  E  E  E
--5-----------------------|--0-----------------------|
-----------6--8-----6-----|--------------------------|
--------7-----------------|--------7-----6-----7-----|
-----7-----------7-----7--|--------------------------|
--------------------------|-----7-----7-----7-----7--|
--5-----------5-----------|--6-----------6-----------|

                             ^
  E  E  E  E  E  E  E  E     H
--0-----------------------|--5---------||
--------------0-----3-----|--2---------||
--------2-----------------|--2--------*||
-----2-----2-----2-----2--|--2--------*||
--0-----------------------|--0---------||
--------------------------|------------||

Duration Legend
---------------
W - whole
H - half
Q - quarter
E - 8th
S - 16th
T - 32nd
X - 64th
. - note dotted
|-n-|  - n-tuplets

Tablature Legend
----------------
^ - brush up
* - repeat to beginning

16 comments on Wind Scene

Awesome Kabukibear! I liked

Awesome Kabukibear! I liked CalebElijah's too but I don't have 2 guitars for his tab. So hells yeah you rock! Do a Eyes On Me now. Woot woot!

nice!!! i shall be learning

nice!!! i shall be learning this.

Whoa, you rock! i came here

Whoa, you rock! i came here about a month back and this tab wasn't here, and still searching a month later i came back again and found what i was after, a kick ass rendition of wind scene for guitar. finally i have something worthy to practice on my guitar. cheers.

As Comic Book Guy would say

As Comic Book Guy would say (if he was ever positive about anything): Best. Tab. Ever.

I nominate it for the Tab of

I nominate it for the Tab of the Year awards

I learned to play this last

I learned to play this last night. This is an amazing song. and an amazing version like you would have never heard it.
Amazing job.

favorite song from this game

5

favorite song from this game ^_~

Holy hell, I had so much

5

Holy hell, I had so much difficulty with this but the results are fantastic!

Wow, amazing tab.

5

I'm still working on it, but what I have so far sounds fantastic. An amazing arrangement of an amazing song, well done.

fantabulous

Indeed, this is great. Thank you!

Awesome tab, but...

5

Can this tab be played on an acoustic? I think its more for classical. Forgive my stupidly, I've only been playing a couple months. (I made sure I had the right tuning though)

It could be played for

It could be played on either. Tabs are interchangeable between acoustic, classical and even electric guitars. The only difference would be the tone the string material produces.

nice

this is a phenomenal tab..so glad i was exposed to this

i like this much better than

5

i like this much better than lonlonjp's version. same goes for radical dreamers

basically.. youre awesome justin! :D good job i hope you keep making tabs when you have the time. you're really good at it.

this is sooo good

5

i should probably stop commenting on all your tabs saying how good they are

but is there a reason why
H Q. E E E E E E E E E
--------------0-----------|----------------------|----------------------------|
-----------1--0--3--1--3--|--3---------------10--|--10-----------8------------|
--------2-----0-----2-----|--0-------------------|---------------------10-----|
--2--3--------------------|--0--------4----------|---------8------------------|
--0-----------------0-----|--0-------------------|------8-----8-----8------8--|
--0-----------5-----------|--0-------------------|

its not a 9 instead of d 4 in the middle of that second measure?
a quarter of silence is enough time to move up to that part of the neck makin the next note easier right?

H Q. E E E E E E E E E
--------------0-----------|----------------------|----------------------------|
-----------1--0--3--1--3--|--3---------------10--|--10-----------8------------|
--------2-----0-----2-----|--0-------------------|---------------------10-----|
--2--3--------------------|--0-------------------|---------8------------------|
--0-----------------0-----|--0--------9----------|------8-----8-----8------8--|
--0-----------5-----------|--0-------------------|

well either way it sounds amazing and i dont know how you make these tabs so well. you get all the sounds in there, and its great. and theres plenty of drop D songs by you so you dont have to switch up the tunings often. <3 thank you