Login or Register to remove this ad. | Advertise Here

Wind Scene (Chrono Trigger) Guitar Tab

Submitted: Oct 03, 2007 by archard (Last updated: Oct 19, 2007)

4.5
Average: 4.5 (18 votes)
Download | Listen
Game: Chrono Trigger
Composer(s): Nobuo Uematsu, Yasunori Mitsuda, Noriko Matsueda
Style: Transcription
Series: Chrono

This song is also called 600 A.D.

AutoScroll: Slow | Medium | Fast
Wind Scene
Chrono Trigger
Composed by Nobuo Uematsu
Tabbed by Richard Schaefer (richard@gametabs.net)
8/7/06

e------0---1-0----------------------------------0--1-------
B--3-----------1---3---3-1--------------------1--------1---
G----------------2---------2---0-2--0-------2--------------
D----------------------------3----------2-3----------------
A----------------------------------------------------------
E----------------------------------------------------------

e--0---1-0----------------------------------0--------
B----------1---3---3-1--------------------1---3-1-3-3
G------------2---------2---0-2--0-------2------------
D------------------------3----------2-3--------------
A----------------------------------------------------
E----------------------------------------------------

17 comments on Wind Scene

maybe im wrong but in the

maybe im wrong but in the midi it sounds like the temp might be just a little fast but besides that great job.

and the final part is

and the final part is missing....but it is still very good.This song rocks

Pretty easy to read, it adds

Pretty easy to read, it adds to the value of the tabulature.

it sounds wonderful!!! get

it sounds wonderful!!! get the rest please!!!!! ^_^

simple and nice :>

simple and nice :>

my p3nis hurts my name is

my p3nis hurts my name is anonymous margen.

FINSH THE REST, its freaking

FINSH THE REST, its freaking awesome tab and easy to read, just disapponited it not done :(

God i love this tab its so

God i love this tab its so simple, even easy for begginers like me, plus this was my favorite song in Chrono Trigger, which was of course my favorite game, just needs the rest.

please put the rest in! its

please put the rest in! its such an awesome tab since its so simple and cool to play, and i wanna figure out how to play the last bit

here i got the last bit of

here i got the last bit of windscene down, just play it after you play the archard tab

Tabbed by Luke Pham
7/10/07

e-5--5--3--1--0---1--3----------------------------0--1--3--0--
B-----------------------5-------------1----1---3--------------
G--------------------------5--2---------3---------------------
D--------------------------------2-3--------------------------
A-------------------------------------------------------------
E-------------------------------------------------------------

e-----------------------5-5--3--1--0--1--3--5--3--1--0-------0--0---
B--------------------1----------------------------------3-2-3---2---
G-2-0-2--------0-2-3--------------------------------------------2---
D-------1--2-3------------------------------------------------------
A-------------------------------------------------------------------
E-------------------------------------------------------------------

wow this is nice i finally

wow this is nice i finally got the first part down

yeah, nice for a start,

3

yeah, nice for a start, though uhhhhhhhh, this piece was NOT composed by nobuo uematsu

it's yasunori mitsuda

you know, the actual MUSICIAN of the two

Not Uematsu

I think he was listing the composers of Chrono Trigger as a whole, not just this individual tab. Mitsuda did compose this one, but the game featured some tracks that were Uematsu, too... Underground Sewer, for example, is entirely Uematsu. Most of the work in the game was, indeed, Mitsuda's stuff. I agree that Mitsuda is good, and definitely underrated :)

stupid comment, tim

stupid comment, tim

i too thought this was one

i too thought this was one of Mitsuda's works. and who post's half a tab? Sounds good tho.

Man this is great! I have

Man this is great! I have been playinga different version of this tab for years and have been wondering how the heck to do the last bit so thanks KillerGorrilla, ill have to start playing this version of the tab since I have the ending now.

Finish the tab?

Anyway we could get a completed tab Archard? I love your tabs cause they're so easy to read.