Login or Register to remove this ad. | Advertise Here

Victory Fanfare (Chrono Trigger) Guitar Tab

Submitted: Oct 03, 2007 by archard

5
Average: 5 (5 votes)
Download | Listen
Game: Chrono Trigger
Composer(s): Nobuo Uematsu, Yasunori Mitsuda, Noriko Matsueda
Style: Transcription
Series: Chrono

AutoScroll: Slow | Medium | Fast
Victory Fanfare
Chrono Trigger
Composed by Yasunori Mitsuda
Tabbed by Richard Schaefer (richard@gametabs.net)
8/8/06

e-----------------------------------------
B---------------------------3-3----1-1-1-3
G------------------------2----------------
D--4--4-4-2-4-5--5-5-4-5------------------
A-----------------------------------------
E-----------------------------------------

e--10---------10--9--9-9-10--------10---------10--9-10-12-14-14---14-15-14-12
B--------8-10---------------10-----------8-10--------------------------------
G------7-------------------------------7-------------------------------------
D----------------------------------------------------------------------------
A----------------------------------------------------------------------------
E----------------------------------------------------------------------------

e--10---------10--9--9-9-10-----------------------------------8-10
B--------8-10---------------10-----8----5-6-5-6-8-6-8-10-8-10-----
G------7------------------------------7---------------------------
D-----------------------------------------------------------------
A-----------------------------------------------------------------
E-----------------------------------------------------------------

3 comments on Victory Fanfare

absolutly awesome... great

absolutly awesome... great job
sounds exactly like it when played fast enough keep up the good work richard

really shweet tab!

really shweet tab!

Totally awesome tab it rocks

Totally awesome tab it rocks serious buisness