Login or Register to remove this ad. | Advertise Here

Magus Battle Theme (Chrono Trigger) Guitar Tab

Submitted: Sep 29, 2007 by archard (Last updated: Sep 29, 2007)

4.6
Average: 4.6 (10 votes)
Download | Listen
Game: Chrono Trigger
Composer(s): Nobuo Uematsu, Yasunori Mitsuda, Noriko Matsueda
Style: Transcription
Series: Chrono

AutoScroll: Slow | Medium | Fast
Magus Battle Theme
Chrono Trigger
Composed by Yasunori Mitsuda
Tabbed by Richard Schaefer (richard@gametabs.net)
10/14/06

e---------------------
B---------------------
G---------------------
D---------------------
A---------------------
E--0-----1-----0-----3

e--------------------------------12-----10----------------
B--------------------------------------------13---12h13p12
G--9-----7------------------------------------------------
D------------10-9-----------------------------------------
A---------------------12--10--8---------------------------
E--------------------------------12-----------------------

e--12----10----------------------------------
B------------13-12---10----------------------
G-----------------------12-10-9---10---9---12
D--------------------------------------------
A--------------------------------------------
E--------------------------------------------

e--12----10-----------------------------10--9-8-7
B------------13-12---10-------12---13------------
G-----------------------12-10-9------------------
D------------------------------------------------
A------------------------------------------------
E------------------------------------------------

e--12----10----------------------------------
B------------13-12---10----------------------
G-----------------------12-10-9---10---9---12
D--------------------------------------------
A--------------------------------------------
E--------------------------------------------

e--12----10-----------------------------10---12
B------------13-12---10-------12---13----------
G-----------------------12-10-9----------------
D----------------------------------------------
A----------------------------------------------
E----------------------------------------------

e------------------------------
B------8-----------------------
G--9-7---9---------------------
D------------10-9---10---9-----
A--------------------------10-7
E------------------------------

e------------------------------------------------
B------8--------------------------8---10---10---9
G--9-7---9--------------------9------------------
D------------10-9---10---12----------------------
A------------------------------------------------
E------------------------------------------------

e---------------------------------------------------
B---------------------------------------------------
G---------------------------------------------------
D--5-5-------5-5-5-----5s7-----5-5-----5-5-5-----8s7
A--3-3-------3-3-3-----3s5-----3-3-----3-3-3-----6s5
E--------------------------------------------------- x2

e--------------------7---8---7
B-----------8---10------------
G--9---10---------------------
D-----------------------------
A-----------------------------
E-----------------------------

Repeat

8 comments on Magus Battle Theme

YES!!!!!!!!!! wow man i

YES!!!!!!!!!! wow man i always loved this game... although everyone loves this game lol
great job! i took the tabs and played it on the piano and pimp it out and all notes were correct keep the good work

Good tab, but some parts

Good tab, but some parts don't seem to sound right such as
e------------------------------
B------8-----------------------
G--9-7---9---------------------
D------------10-9---10---9-----
A--------------------------10-7
E------------------------------

and also as well

e--12----10-----------------------------10--9-8-7
B------------13-12---10-------12---13------------
G-----------------------12-10-9------------------
D------------------------------------------------
A------------------------------------------------
E------------------------------------------------

You may want to try playing

You may want to try playing the first bit like this

e---------------------
B---------------------
G---------------------
D--2-----3-----2-----5
A---------------------
E--0-----1-----0-----3

That version sounds nice as

That version sounds nice as well.

picking a string apart is

picking a string apart is very unusual guz,means you have to take the time to push your pick away,use your fingers,then go back to pick mode,you had to do it once in the song though.

well for a song like this, i

well for a song like this, i really think it needs to be arranged for solo fingerstyle guitar. and as far as that switching to and from a pick comment. mute the string a number of different ways, use a thumb pick, or learn some more effective techniques and you wil be fine.

If picking the 6th and 4th string

5

at once with a pick in hand is difficult for you, there's a serious problem there.

Umm most awsome and memorble

Umm most awsome and memorble fight in ANY game. Blue candles 'Poof', 'poof', 'poof'.