Login or Register to remove this ad. | Advertise Here

Frog's Theme (Chrono Trigger) Guitar Tab

Submitted: May 03, 2008 by archard (Last updated: Oct 16, 2009)

4.666665
Average: 4.7 (9 votes)
Download | Listen
Game: Chrono Trigger
Composer(s): Nobuo Uematsu, Yasunori Mitsuda, Noriko Matsueda
Style: Arrangement, Fingerstyle
Series: Chrono

AutoScroll: Slow | Medium | Fast
Frog's Theme
Chrono Trigger
Composed by Yasunori Mitsuda
Arranged by Richard Schaefer (archard)
5/3/08



     |--3--|            |--3-|     |--3--|                  
     E  E  E  Q    Q    Q    E     E  E  E  Q    Q    Q     
E||-----------------------------|--------------------------|
B||---------------------0----1--|--0-----0-----------------|
G||--2--0--2-------2------------|-----2-----0--------------|
D||-----------2-----------------|---------------------0----|
A||--0--------0----0----0-------|--------------------------|
E||-----------------------------|--3--------3----3----3----|


  |--3--|            |--3-|     |--3--|                  
  E  E  E  Q    Q    Q    E     E  E  E  Q    Q    Q     
-----------------------------|--------------------------|
---------------------0----1--|--0--1--3--0--------------|
--2--0--2-------2------------|--------------------------|
-----------2-----------------|--------------------------|
-----------------------------|--------------------------|
--1--------1----1----1-------|--3--------3----3----3----|


  |--3--|            |--3-|     |--3--|                  
  E  E  E  Q    Q    Q    E     E  E  E  Q    Q    Q     
-----------------------------|--------------------------|
---------------------0----1--|--0-----0-----------------|
--2--0--2-------2------------|-----2-----0--------------|
-----------2-----------------|---------------------0----|
--0--------0----0----0-------|--------------------------|
-----------------------------|--3--------3----3----3----|


  |--3--|                    |--3--|  |--3--|             
  E  E  E  Q    Q    Q       E  E  E  E  E  E  Q    Q     
--------------------------|------------------------------|
-----------0----1----0----|------------------------------|
--2--0--2-----------------|--2--0--2--2--0--2--2---------|
--------------------------|------------------------------|
--------------------------|--0--------0--------0---------|
--1--------1----1----1----|------------------------------|


  |--3-|  |--3--|                                                            
  Q    E  E  E  E  Q    Q       Q    Q    Q    E  E     Q    Q    Q    Q     
--0----0--0--------0----5----|--3---------0----------|----------------------|
-------------1--3------------|--------------------1--|----------------------|
-----------------------------|-----------------------|--2-------------------|
----------2-------------2----|-----------------------|----------------------|
--0-------0--------0----0----|-------2---------2-----|-------3---------3----|
-----------------------------|--3----3----3----3-----|--1----1----1----1----|


  |--3--|  |--3--|  |--3--|  |--3--|     |--3-|  |--3--|             
  E  E  E  E  E  E  E  E  E  E  E  E     Q    E  E  E  E  Q    Q     
--------------------------0-----0--3--|--0----0--0--------0----5----|
-----0--1--0--1--3--1--3-----3--------|-------------1--3------------|
--2-----------------------------------|-----------------------------|
--------------------------------------|----------2-------------2----|
-----------------------------0--------|--0-------0--------0----0----|
--0--------0--------3-----------------|-----------------------------|


       |--3--|                                                           
  Q    E  E  E  Q    Q       Q    Q    Q    Q       Q    Q    Q    Q     
--7----L--8--7--5----3----|--5-------------------|--5---------7---------|
-------0-------------0----|----------------------|----------------------|
--0----0--------0----0----|-------5---------5----|-------2---------9----|
--------------------------|--3----3----3----3----|-------2---------9----|
--------------------------|----------------------|----------------------|
--------------------------|----------------------|--0---------0---------|


  |--3-|  |--3--|               |--3-|  |--3--|             
  Q    E  E  E  E  Q    Q       Q    E  E  E  E  Q    Q     
--8----8--8--7--5--3----0----|--5----5--5--3--1--0---------|
-----------------------------|-----------------------------|
-------------------0----0----|-------------------2----2----|
-----------------------------|--3-------3------------------|
--8-------8------------------|-------------------0----0----|
-------------------3----3----|-----------------------------|


  |--3-|  |--3--|                                    
  Q    E  E  E  E  Q    Q       Q    Q    Q    Q     
--8----8--8--7--5--3----0----|--5---------7---------|
-----------------------------|----------------------|
-------------------0----0----|-------2---------9----|
-----------------------------|-------2---------9----|
--8-------8------------------|--0---------7---------|
-------------------3----3----|----------------------|


  |--3-|  |--3--|               |--3-|  |--3--|             
  Q    E  E  E  E  Q    Q       Q    E  E  E  E  Q    Q     
--8----8--8--7--5--3----0----|--5----5--5--3--1--0---------|
-----------------------------|-----------------------------|
-------------------0----0----|-------------------2----2----|
-----------------------------|--3-------3------------------|
--8-------8------------------|-------------------0----0----|
-------------------3----3----|-----------------------------|


  |--3-|  |--3--|                                                 
  Q    E  E  E  E   Q     Q       Q    Q    Q    Q                
--8----8--8--7--8--10-----7----|--7---------5----------||-------||
-------------------------------|-----------------------||-------||
-------------------------------|------------2---------*||-------||
-------------------------------|----------------------*||-------||
--8-------8--------10----10----|--0----0----0----------||-------||
-------------------------------|-----------------------||-------||




Duration Legend
---------------
W - whole
H - half
Q - quarter
E - 8th
. - note dotted
|-n-|  - n-tuplets
L - tied note

5 comments on Frog's Theme

great job

5

great job

Sounds awesome!

5

Sounds awesome!

your tabs have become much

your tabs have become much more advanced, nice job. a lot of your older tabs are mostly just the melodies, which is also okay because i've gotten a lot from them when i'm too lazy to figure out the melody myself anyway, and its great for the beginners on the site, but its really nice to see you tab something out fully and definitely better than i can do!

oh, and this song rocks.

dead on man

dead on man

amazing tab

5

thanks, i love this tab. i memorized it pretty easily and it's incredibly fun to play. great job, please make more tabs like this!