Login or Register to remove this ad. | Advertise Here

Frog's Theme (Chrono Trigger) Guitar Tab

Submitted: Aug 07, 2006 by archard (Last updated: Apr 22, 2010)

4.52941
Average: 4.5 (17 votes)
Download | Listen
Game: Chrono Trigger
Composer(s): Nobuo Uematsu, Yasunori Mitsuda, Noriko Matsueda
Style: Transcription
Series: Chrono

AutoScroll: Slow | Medium | Fast
Frog's Theme
Chrono Trigger
Composed by Yasunori Mitsuda
Tabbed by Richard Schaefer (richard@gametabs.net)
8/7/06

e----------------4--2---------------------------------------2
B--4--4-4-0-2-4---------4---0-------------0---0-2-0-2-4-2-4--
G-----------------------------1-------1-3---3----------------
D------------------------------------------------------------
A------------------------------------------------------------
E------------------------------------------------------------

e----------------4--6---7-6-4--2--4-------4---6-
B--4--4-4-0-2-4---------------------------------
G-----------------------------------------------
D-----------------------------------------------
A-----------------------------------------------
E-----------------------------------------------

e--7-7-7-6-4-2-----4-4-4-2-0-------7-7-7-6-4-2-----4---6
B---------------4------------4-----------------4--------
G-------------------------------------------------------
D-------------------------------------------------------
A-------------------------------------------------------
E-------------------------------------------------------

e--7-7-7-6-4-2-----4-4-4-2-0-------7-7-7-6-7-9--6---4
B---------------4------------4-----------------------
G----------------------------------------------------
D----------------------------------------------------
A----------------------------------------------------
E----------------------------------------------------

15 comments on Frog's Theme

a great song, that when

a great song, that when modified like CalebElijah did, sounds amazing.

Nice tab, it's easy to read and play.

i like the tab, and its easy

i like the tab, and its easy to read too. plus this was like my favorite game =)

Yeah!

I think that too. Nice and easy ;).

cool i will play this song

cool i will play this song all the time

GREAT GREAT GREAT !! THANKS

GREAT GREAT GREAT !! THANKS A LOT !!!!

man you are just on every

man you are just on every game i like arent you

Great job man, really nice

Great job man, really nice tab, easy to read and play.

Cool Tab guy...

5

Cool Tab guy...

I agree with annonymous

I agree with annonymous xD....
You are in every sog i wat to play...

This has got to be the best

This has got to be the best tab I have ever come across. The best song from the best game ever, i cant thank you enough man!

Nice Song! Can you say me

5

Nice Song! Can you say me how can I post a tab like your?
Thanks

I think this is how the intro

5

I think this is how the intro goes

e|--4-2-4---4-6-7-6-7-6------4-2-4---4-6-7-6-7-6-7----4-2-4---4-6-7-6-7-6---|
B|--------4-------------7----------4------------------------4-------------7-|
G|--------------------------------------------------------------------------|
D|--------------------------------------------------------------------------|
A|--------------------------------------------------------------------------|
E|--------------------------------------------------------------------------|

e|--4-2-4--6--7--6--4-2-4-2-4-2-4-|
B|--------------------------------|
G|--------------------------------|
D|--------------------------------|
A|--------------------------------|
E|--------------------------------|

Tell me if you think it is wrong

I'm just going from memory

I'm just going from memory here, but I edited your ending to look more like this, Ranulf

e|--4-2-4---4-6-7-6-4-6------4-2-4---4-6-7-6-7-9-6----4-2-4---4-6-7-6-4-6---|
B|--------4-------------7----------4------------------------4-------------7-|
G|--------------------------------------------------------------------------|
D|--------------------------------------------------------------------------|
A|--------------------------------------------------------------------------|
E|--------------------------------------------------------------------------|

e|--4-2-4--6--7--6--4-2-4-4-2-4-4-|
B|--------------------------------|
G|--------------------------------|
D|--------------------------------|
A|--------------------------------|
E|--------------------------------|

Yeah that sounds right

5

Yeah that sounds right

Want a quality tab! thanks!

Want a quality tab! thanks!
- stopzilla review