Login or Register to remove this ad. | Advertise Here

Far Off Promise (Chrono Trigger) Guitar Tab

Submitted: Oct 03, 2007 by archard

4.46154
Average: 4.5 (13 votes)
Download | Listen
Game: Chrono Trigger
Composer(s): Nobuo Uematsu, Yasunori Mitsuda, Noriko Matsueda
Style: Transcription
Series: Chrono

This song is also called To Good Friends

AutoScroll: Slow | Medium | Fast
Far Off Promise (Epilouge)
Chrono Trigger
Composed by Yasunori Mitsuda
Tabbed by Richard Schaefer (richard@gametabs.net)
2/2/07

e--------------------------------------------------------
B-----------------11--8----------------------------------
G-----8---8--10-------------10--8---8--10------8-8----7--
D--8----------------------------------------10-----------
A--------------------------------------------------------
E--------------------------------------------------------

e-----------------------------------------------
B----------11-11--11--9--8--9---9--9--8------8--
G----------------------------------------10-----
D--10--8----------------------------------------
A-----------------------------------------------
E-----------------------------------------------

e---------------------------------------------------------------------
B--8-------11-------------8-------------------11-11--9--8-------------
G-----10-------8---8--7---------------------8--------------8---10--8--
D----------------------------10----10--8------------------------------
A---------------------------------------------------------------------
E---------------------------------------------------------------------

Repeat

8 comments on Far Off Promise

Awesome work. I just picked

5

Awesome work. I just picked up the guitar and it's songs like this that keep me practicing my chords and scales. This is well within the grasp of a beginner and probably one of the more beautiful arrangements for anyone who grew up in front of a Super Nintendo.

Wow, this doesn't sound

Wow, this doesn't sound anything like it!

Umm

I'm guessing that was sarcasm? ;P

Sounds just like it to me...

not sure what song you were

not sure what song you were trying to play but this sounds just like the song from the game.

thats not true, it does, its

thats not true, it does, its just simple. you must be playing it on the wrong strings=P

simple sounds right

4

simple sounds right

It seems like there is an

It seems like there is an ending...or is that just me?

Very Nice and Simple

Sounds exactly how it should and is very simple to get the hang of. All of those nay sayers try pressing the listen button and scale your playing with that.