Login or Register to remove this ad. | Advertise Here

Corridors of Time (Chrono Trigger) Guitar Tab

Submitted: Nov 13, 2006 by archard (Last updated: Apr 14, 2008)

4.8
Average: 4.8 (15 votes)
Download | Listen
Game: Chrono Trigger
Composer(s): Nobuo Uematsu, Yasunori Mitsuda, Noriko Matsueda
Style: 2 or more instruments, Transcription
Series: Chrono

This song is also called Zeal

AutoScroll: Slow | Medium | Fast
Corridors of Time
Chrono Trigger
Composed by Yasunori Mitsuda
Tabbed by Richard Schaefer (richard@gametabs.net)
11/14/06

Guitar 1
e-----4-4-2-2-------4-5--7---5-4-2-2-------------4-4-2-2-------4-5--7-7--9-9
B--3--------------7-------------------5-5-----3--------------7--------------
G---------------------------------------------------------------------------
D---------------------------------------------------------------------------
A---------------------------------------------------------------------------
E---------------------------------------------------------------------------

e--9--12--9--------------------9---7--9------------
B------------10----------10-7------------9---7-5---
G--------------------------------------------------
D--------------------------------------------------
A--------------------------------------------------
E--------------------------------------------------

e--0-2-----0-2--4--5--4-----2-4--5--4-4-----2-2
B--------3----------------5--------------------
G------2----------------4----------------------
D----------------------------------------------
A----------------------------------------------
E----------------------------------------------

String Synth
e----------4-----5---4----------------------------------------
B------5----------------5--2-------------5--------------------
G--4----------------------------------4-----4---2---1---------
D-------------------------------------------------------4--2-4
A-------------------------------------------------------------
E-------------------------------------------------------------

e----------4-----5---4----------------------2
B------5----------------5--2----------5------
G--4-----------------------------------------
D--------------------------------------------
A--------------------------------------------
E--------------------------------------------



Corridors of Time
Chrono Trigger
Composed by Yasunori Mitsuda
Tabbed by Richard Schaefer (richard@gametabs.net)
11/14/06

Guitar 2
e----------2-------0-------2------
B--------2-------2-------2-------2
G------4-------4-------4-------4--
D--0-4-------4-------4-------4----
A---------------------------------
E--------------------------------- x2

e----------2-------0-------2---------------2-------0-------2------
B--------2-------2-------2-------2-------2-------2-------2-------2
G------4-------4-------4-------4-------4-------4-------4-------4--
D--0-4-------4-------4-------4-------4-------4-------4-------4----
A----------------------------------4------------------------------
E-----------------------------------------------------------------

e----------2-------0-------2--------------------------------------
B--------2-------2-------2-------2---------5-----2-4-------5------
G------4-------4-------4-------4---------6-----1---------6-------6
D--0-4-------4-------4-------4-------4-6-----2-------4-6-----4-6--
A----------------------------------4------------------------------
E-----------------------------------------------------------------

e----------2-------0-------2---------------2-------4-------2------
B--------2-------2-------2-------2-------2-------2-------2-------2
G------4-------4-------4-------4-------2-------2-------2-------2--
D--0-4-------4-------4-------4-------4-------4-------4-------4----
A----------------------------------4------------------------------
E-----------------------------------------------------------------

e----------2-------0-------2--------------------------------------
B--------2-------2-------2-------2---------5-----2-4-------5------
G------4-------4-------4-------4---------6-----1---------6-------6
D--0-4-------4-------4-------4-------4-6-----2-------4-6-----4-6--
A----------------------------------4------------------------------
E-----------------------------------------------------------------

e----------2-------0-------2---------------2-------4-------2------
B--------2-------2-------2-------2-------2-------2-------2-------2
G------4-------4-------4-------4-------2-------2-------2-------2--
D--0-4-------4-------4-------4-------4-------4-------4-------4----
A----------------------------------4------------------------------
E-----------------------------------------------------------------

e----------2-------0-------2---------------2-------0-------2------
B--------2-------2-------2-------2-------2-------2-------2-------2
G------4-------4-------4-------4-------4-------4-------4-------4--
D--0-4-------4-------4-------4-------4-------4-------4-------4----
A----------------------------------4------------------------------
E----------------------------------------------------------------- x3

e----------2-------0-------2---------------2-------4-------2------
B--------2-------2-------2-------2-------2-------2-------2-------2
G------4-------4-------4-------4-------2-------2-------2-------2--
D--0-4-------4-------4-------4-------4-------4-------4-------4----
A----------------------------------4------------------------------
E-----------------------------------------------------------------

Repeat

6 comments on Corridors of Time

apparently an underrated

5

apparently an underrated song from the amount of comments. Nice job.

Awesome tableture man.

5

Awesome tableture man. Great job.

My favourite song on the

My favourite song on the whole soundtrack. Great tab.

I'm just starting to learn

5

I'm just starting to learn guitar and this is easy and fun to play, thanks for tabbing it.

love it

5

love it

:D

5

Awesome, but this sounds slightly better to me:
Guitar 1
e-----4-4-2-2-----
B--2--------------
G-----------------
D-----------------
A-----------------
E-----------------

Than this:

Guitar 1
e-----4-4-2-2-----
B--3--------------
G-----------------
D-----------------
A-----------------
E-----------------