Login or Register to remove this ad. | Advertise Here

Battle Theme 1 (Chrono Trigger) Bass Tab

Submitted: Oct 03, 2007 by archard (Last updated: Dec 04, 2010)

4
Average: 4 (4 votes)
Download | Listen
Game: Chrono Trigger
Composer(s): Nobuo Uematsu, Yasunori Mitsuda, Noriko Matsueda
Style: Transcription
Series: Chrono

AutoScroll: Slow | Medium | Fast
Battle Theme
Chrono Trigger
Composed by Yasunori Mitsuda
Tabbed by Richard Schaefer (richard@gametabs.net)
3/6/07

G---------------------------------------7--
D--0--0-3-0---0-3-0---0--0-3-0---0-8-10----
A------------------------------------------
E------------------------------------------

G--------------------------------7--5---------
D--0--0-3-0---0-3-0---0--0-3-0---------7-5----
A------------------------------------------8--
E---------------------------------------------

Repeat for the whole song

4 comments on Battle Theme 1

It sounds good, but for some

It sounds good, but for some reason it don't sound right at times.

because you dont play it in

because you dont play it in time,
the drums kinda make it sound different sometimes as well

i like it im playin this on

5

i like it im playin this on ma dads 5 string bass lol coz i can alreddy play thew lead.. =S its quite hard at the fast bits... im not used to bass

Almost perfect but it's 7 10

Almost perfect but it's 7 10 not 8 10. It's D minor pentatonic.