Login or Register to remove this ad. | Advertise Here

Battle Theme 1 (Chrono Trigger) Guitar Tab

Submitted: Jan 01, 2009 by TheDoomOfAllFires (Last updated: Dec 30, 2009)

4.875
Average: 4.9 (8 votes)
Download | Listen
Game: Chrono Trigger
Composer(s): Nobuo Uematsu, Yasunori Mitsuda, Noriko Matsueda
Style: Arrangement, Fingerstyle
Series: Chrono

AutoScroll: Slow | Medium | Fast
Chrono Trigger - Battle Theme 1
Arranged by TheDoomOfAllFires, 12/30/2008

Drop D Tuning
Bpm=90


    E  S S S S S S E  S S S S T T  T T    E  S S S S S S E  S S T  T S T  T S  
E||-------------------------------------|--------------------------------------|
B||------------------------------1h-3---|------------------------3p-1----------|
G||----------------------------2--------|-----------------------------2-2p-0---|
D||--0--3-0---0-3-0-0--3-0---0----------|--0--3-0---0-3-0-0--3-0-------------3-|
A||-------------------------------------|--------------------------------------|
D||--0------0-------0------0------------|--0------0-------0------0-------------|


    E  S S S S S S E  S S S S T T  T T  
|------------------0-------------------|
|---3---------------------------1h-3---|
|*----------------------------2--------|
|*--0--3-0---0-3-0-0--3-0---0----------|
|--------------------------------------|
|---0------0-------0------0------------|


  E  S S S S S S E  S S T  T S T  T S      E  S S S S S S E  S S S S T T  T T  
--1--------------3---------------------||--5----------------------------------|
------------------------3p-1-----------||------------------------------1h-3---|
-----------------------------2-2p-0---*||----------------------------2--------|
--0--3-0---0-3-0-0--3-0-------------3-*||--0--3-0---0-3-0-0--3-0---0----------|
---------------------------------------||-------------------------------------|
--0------0-------0------0--------------||--0------0-------0------0------------|


  E  S S S S S S E  S S T  T S T  T S      S S S S S S S S S S S S S S S S  
--------------------------------------||-----------------------------------|
------------------------3p-1----------||---3-----3-------------------------|
-----------------------------2-2p-0---||*----------5-----5-4---5---4---2-0-|
--0--3-0---0-3-0-0--3-0-------------3-||*------0-------5-------5-------3---|
--------------------------------------||-----0-------5-------5-------5-----|
--0------0-------0------0-------------||---0-------5-------5-----5---------|


  S S S S S S S S S S S S S S S S    E  S S S S S S E  S S S S T T  T T  
----------------------------------|-------------------------------------|
----------------------------------|------------------------------1h-3---|
--2-----2-0-----0-----0-----------|--2-------------------------2--------|
--0---------------3-------2-------|--0--3-0---0-3-0-0--3-0---0----------|
------0---3---3-----0-----3-0---0-|-------------------------------------|
----0-------5-----0-----0-----3---|--0------0-------0------0------------|


  E  S S S S S S E  S S T  T S T  T S       E  S S S S S S E  S S S S T T  T T  
---------------------------------------||------------------0-------------------|
------------------------3p-1-----------||---3---------------------------1h-3---|
-----------------------------2-2p-0---*||*----------------------------2--------|
--0--3-0---0-3-0-0--3-0-------------3-*||*--0--3-0---0-3-0-0--3-0---0----------|
---------------------------------------||--------------------------------------|
--0------0-------0------0--------------||---0------0-------0------0------------|


  E  S S S S S S E  S S T  T S T  T S      E  S S S S S S E  S S S S T T  T T  
--1--------------3---------------------||--5----------------------------------|
------------------------3p-1-----------||------------------------------1h-3---|
-----------------------------2-2p-0---*||----------------------------2--------|
--0--3-0---0-3-0-0--3-0-------------3-*||--0--3-0---0-3-0-0--3-0---0----------|
---------------------------------------||-------------------------------------|
--0------0-------0------0--------------||--0------0-------0------0------------|


  E  S S S S S S E  S S T  T S T  T S      S S S S S S S S S S S S S S S S  
--------------------------------------||-----------------------------------|
------------------------3p-1----------||---3-----3-------------------------|
-----------------------------2-2p-0---||*----------5-----5-4---5---4---2-0-|
--0--3-0---0-3-0-0--3-0-------------3-||*------0-------5-------5-------3---|
--------------------------------------||-----0-------5-------5-------5-----|
--0------0-------0------0-------------||---0-------5-------5-----5---------|


  S S S S S S S S S S S S S S S S    E  S S S S S S E  S S S S T T  T T  
----------------------------------|-------------------------------------|
----------------------------------|------------------------------1h-3---|
--2-----2-0-----0-----0-----------|--2-------------------------2--------|
--0---------------3-------2-------|--0--3-0---0-3-0-0--3-0---0----------|
------0---3---3-----0-----3-0---0-|-------------------------------------|
----0-------5-----0-----0-----3---|--0------0-------0------0------------|


                                           ^                  
  E  S S S S S S E  S S T  T S T  T S      W                  
---------------------------------------||-------------------||
------------------------3p-1-----------||-------------------||
-----------------------------2-2p-0---*||-------------------||
--0--3-0---0-3-0-0--3-0-------------3-*||--0----------------||
---------------------------------------||--0----------------||
--0------0-------0------0--------------||--0----------------||




Duration Legend
---------------
W - whole
H - half
Q - quarter
E - 8th
S - 16th
T - 32nd
X - 64th
. - note dotted
|-n-|  - n-tuplets


Tablature Legend
----------------
L - tied note
x - dead note
g - grace note
(n) - ghost note
> - accentuded note
NH - natural harmonic
AH - artificial harmonic
TH - tapped harmonic
SH - semi harmonic
PH - pitch harmonic
h - hammer on
p - pull off
b - bend
br - bendRelease
pb - preBend
pbr - preBendRelease
brb - bendReleaseBend
\n/ - tremolo bar dip
\n - tremolo bar dive
-/n - tremolo bar Release up
/n\ - tremolo bar inverted dip
/n - tremolo bar return
-\n - tremolo bar Release down
S - shift slide
s - legato slide
/ -  slide into from below or out of upwards
\ -  slide into from above or out of downwards
~ - vibrato
W - wide vibrato
tr - trill
TP - tremolo picking
T - tapping
S - slap
P - pop
< - fade in
^ - brush up
v - brush down