Login or Register to remove this ad. | Advertise Here

Battle Theme 1 (Chrono Trigger) Guitar Tab

Submitted: Oct 03, 2007 by archard (Last updated: Dec 04, 2010)

4.555555
Average: 4.6 (9 votes)
Download | Listen
Game: Chrono Trigger
Composer(s): Nobuo Uematsu, Yasunori Mitsuda, Noriko Matsueda
Style: Transcription
Series: Chrono

AutoScroll: Slow | Medium | Fast
Battle Theme
Chrono Trigger
Composed by Yasunori Mitsuda
Tabbed by Richard Schaefer (richard@gametabs.net)
8/16/06

e-------------------------------------------
B-------------------------------------------
G----------------------------------0--------
D--0---------2----------3-------------------
A-------------------------------------------
E-------------------------------------------

e-----------------------------------------------
B-----------------------------------------------
G-----------------------------------0----------2
D--0----------2----------3----------------------
A-----------------------------------------------
E-----------------------------------------------

e-----------------------------------------------------
B--3---1---0-1-0--------------------------------------
G----------------0-2---0-----0------------------------
D--------------------------3---2----------------------
A--------------------------------3-0------------------
E-----------------------------------------------------

e-----------------------------------
B--3---1---0-1-0--------------------
G----------------0-2---0-----0------
D--------------------------3---2---0
A--------------------------------3--
E-----------------------------------

10 comments on Battle Theme 1

great job i just wish some

great job i just wish some ppl would making some bass tabs only cuz its hard to tab some times when u dont have the tune/rythem but besides that very cool

Seriously, people. Where the

Seriously, people. Where the HELL can i find a BASS tab for this song?!

All you had to do was ask :)

All you had to do was ask :)

thanks dude! i was looking

thanks dude! i was looking for the bass tab. this song is the roxor

LoL.... Magus

LoL....
Magus xD.....
...
Thanks!

This is great and easy Nice

5

This is great and easy

Nice

Simple and well tabbed

5

Very good, and simple to learn tab - great as a practice material for a guitar rookie like myself

great tab

4

This Is great im just learning guitar this is simple and i love all your tabs

messed of rating

5

i meant 5 starts not four

yay!

5

Acurrate! :D