Login or Register to remove this ad. | Advertise Here

Character Select Theme 2 (unused) (Super Meat Boy!) Bass/Guitar Tab

Submitted: Mar 19, 2011 by hslesperance

0
Download | Listen
Game: Super Meat Boy!
Composer(s): Danny Baranowsky
Style: 2 or more instruments, Transcription

AutoScroll: Slow | Medium | Fast
Character Select Theme 2 (unused)
Super Meat Boy
Composed by Danny Baranowsky
Tabbed by hslesperance
3/19/11

Thanks to RexLeRouge for his help!

You can listen to the original song here listed as track #71
http://dbsoundworks.bandcamp.com/album/super-meat-boy-double-cd-special-...




Standard Tuning


Guitar 1 

     a  E.    S  E.  E  S  E    E  E    E  E    E  S  H         S
||--12s14----12-12-------------------|----------------------------|
||o-----------------14-12------------|-12------12s14-14-----------|
||------------------------14---11-14-|----14----------------------|
||-----------------------------------|----------------------------|
||o----------------------------------|----------------------------|
||-----------------------------------|----------------------------|


   a  E.    S  E.  E  S  E    E  E    E  E    E  S  H         S
|-12s14----12-12-------------------|-----------------------------|
|-----------------14-12------------|-12------12s14-12------------|
|-----------------------14---11-14-|----14-----------------------|
|----------------------------------|-----------------------------|
|----------------------------------|-----------------------------|
|----------------------------------|-----------------------------|


   Q      Q      E.    E.    E       +W
|---------------------------------|----------------------------------|
|-14-----12-----------------------|----------------------------------|
|---------------14----11----14----|-(14)-----------------------------|
|---------------------------------|----------------------------------|
|---------------------------------|----------------------------------|
|---------------------------------|----------------------------------|
| Guitar 2
|  Q      Q      E.    E.    S  S    +E.    S  +H.
|-12------------------------------|----------------------------------|
|--------15-----13----------13s15-|-(15)---14-(14)-------------------|
|---------------------14----------|----------------------------------|
|---------------------------------|----------------------------------|
|---------------------------------|----------------------------------|
|---------------------------------|----------------------------------|

  Guitar 3
   a  H              a  E.    S  Q      a  E.  S  E    E    E    Q.
|------------------------------------|-------------------------------------|
|------------------------------------|-------------------------------------|
|------------------------------------|-------------------------------------|
|-10s11-------------10s11------------|-10s11----------11---12s==14---------|
|----------------------------12-12---|--------12-12------------------------|
|------------------------------------|-------------------------------------|

                                              ~~~~
   a  E.    S  Q     a  Q      Q      Q      +H.
|----------------------------------|------------------------------|
|----------------------------------|------------------------------|
|----------------------------------|------------------------------|
|-10s11-------------10s11----------|------------------------------|
|----------12-12--------------12---|------------------------------|
|----------------------------------|-12-----(12)------------------|


  a a  E E S S S E.   S  E  S S  S    S  S  S  E  S  S  S E    E   E   E
|----------------------------------|------------------------------------------|
|-8h9h10-8-------------------------|------------------------------------------|
|----------9p7-7-7----7------------|------------------------------------------|
|-----------------------10-10-7----|----------10------------------------------|
|-------------------------------10-|-10s11-12----12-12s10-7-------------------|
|----------------------------------|--------------------------10---8---5------|


  W          W          W          W
|----------|----------|----------|-------||
|----------|----------|----------|------o||
|-Empty measures are percussion.-|-------||
|----------|----------|----------|-------||
|----------|----------|----------|------o||
|----------|----------|----------|-------||




Guitar 4

The rhythm might not be perfect on this guitar,
but as long as you play the chords below it should sound good.

        E  S  S  E.  E  E    S  E  E    E  S S  E  S  E E S E E
||-------------------5---------------|-------5--5-----------------|
||o-----5--x--5--5---5--5----5--5--5-|--7--x-7--7--x--7-7-7-7-7---|
||------6--x--6--6---6--6----6--6--6-|--5--x-5--5--x--5-5-5-5-5---|
||------7--x--7--7---7--7----7--7--7-|--7--x-7--7--x--7-7-7-7-7---|
||o----------------------------------|----------------------------|
||-----------------------------------|----------------------------|


      E  S  S  E.  E  E    S  E  E    E  S S  E  S  E E S E E
|-----------5--5---5--5----5--5--5-|-----------------------------|
|-----5--x--5--5---5--5----5--5--5-|--7--x-7--7--x--7-7-7-7-7----|
|-----6--x--6--6---6--6----6--6--6-|--5--x-5--5--x--5-5-5-5-5----|
|-----7--x--7--7---7--7----7--7--7-|--7--x-7--7--x--7-7-7-7-7----|
|----------------------------------|-----------------------------|
|----------------------------------|-----------------------------|


   E S S  E S S  E  S  S  E  S  S     E  S  S   S  S S E E S S S S S
|---------------------------------|---5----------------5-5-----------|
|--9-9-9--9-9-9--7--7--7--7--7--7-|---5--5--5---5--5-5-5-5-5-5-5-5-5-|
|--7-7-7--7-7-7--5--5--5--5--5--5-|---6--6--6---6--6-6-6-6-6-6-6-6-6-|
|--9-9-9--9-9-9--7--7--7--7--7--7-|---7--7--7---7--7-7-7-7-7-7-7-7-7-|
|---------------------------------|----------------------------------|
|---------------------------------|----------------------------------|


      E S S S S S E        E  S  E E       E.  S  S S  S E    E     S Q
|-----5-----------5--------5---------|------------------------8-----8-8----|
|-----5-5-5-5-5-5-5--------5--5--5---|-----7---7--7-7--7-7----7-----7-7----|
|-----6-6-6-6-6-6-6--------6--6--6---|-----5---5--5-5--5-5----5-----5-5----|
|-----7-7-7-7-7-7-7--------7--7--7---|-----7---7--7-7--7-7----7-----7-7----|
|------------------------------------|-------------------------------------|
|------------------------------------|-------------------------------------|


      E  S  S  E. E       E S  E E    E S S   S  S S E E S S S E
|-----------5--5-------------------|------5---5--5-5-5------------|
|-----5--x--5--5--5-------5-5--5-5-|--7-x-7---7--7-7-7-7-7-7-7-7/-|
|-----6--x--6--6--6-------6-6--6-6-|--5-x-5---5--5-5-5-5-5-5-5-5--|
|-----7--x--7--7--7-------7-7--7-7-|--7-x-7---7--7-7-7-7-7-7-7-7--|
|----------------------------------|------------------------------|
|----------------------------------|------------------------------|


       E E E   S E  S S  E  S E       E     S  E  S  S  E   E    S S S S S
|----------7---7-5--5-5--5--5-5----|-----------5--------5---5-----------------|
|------9---9---9-7--7-7--7--7-7----|--5-----5--5--5--5--5---5----5-5-5-5-5----|
|--------7-------------------------|--6-----6--6--6--6--6---6----6-6-6-6-6----|
|----------------------------------|--7-----7--7--7--7--7---7----7-7-7-7-7----|
|----------------------------------|------------------------------------------|
|----------------------------------|------------------------------------------|


  W          W          W          W
|----------|----------|----------|-------||
|----------|----------|----------|------o||
|-Empty measures are percussion.-|-------||
|----------|----------|----------|-------||
|----------|----------|----------|------o||
|----------|----------|----------|-------||




Bass

    E. S E S S E E E E   E. S E S S E E E E
||-------------------2-|--------------2-----|
||o----2---2s4---2-----|----2---2s4-----2---|
||o-0----0-----0---4---|-0----0-----0-----4-|
||---------------------|--------------------|


  E. S E S S E E E E   E. S E S S E E E E
|------------------2-|--------------2-----|
|----2---2s4---2-----|----2---2s4-----2---|
|-0----0-----0---4---|-0----0-----0-----4-|
|--------------------|--------------------|


  E E E E E E E E   E E E E E E E E   E. S E S S E E E E   E. S E S S E E E E
|---4---4---2---2-|-----------2-----|------------------2-|--------------2-----|
|-2---2---0---0---|---2---2-----2---|----2---2s4---2-----|----2---2s4-----2---|
|-----------------|-0---0---0-----4-|-0----0-----0---4---|-0----0-----0-----4-|
|-----------------|-----------------|--------------------|--------------------|


  E. S E S S E E E E   E. S E S S E E E E   E E E E E E E E   E E E E E E E E
|------------------2-|--------------2-----|---4---4---2---2-|-----------2-----|
|----2---2s4---2-----|----2---2s4-----2---|-2---2---0---0---|---2---2-----2---|
|-0----0-----0---4---|-0----0-----0-----4-|-----------------|-0---0---0-----4-|
|--------------------|--------------------|-----------------|-----------------|


  W          W          W          H    E S S S S S S
|----------|----------|----------|----------2---5---7---||
|-Empty measures are percussion.-|---------------------o||
|----------|----------|----------|--------0---3---5----o||
|----------|----------|----------|----------------------||

h - hammer on
p - pull off
s - slide
/ - slide upward
~ - vibrato
x - muted note

W - whole
H - half
Q - quarter
E - 8th
S - 16th
a - acciaccatura
+ - note tied to previous
. - note dotted