Login or Register to remove this ad. | Advertise Here

Sirena Beach (Super Mario Sunshine) Bass Tab

Submitted: Jan 13, 2011 by A Dead Fly

0
Download | Listen
Game: Super Mario Sunshine
Composer(s): Koji Kondo, Shinobu Tanaka
Style: Transcription
Series: Mario

AutoScroll: Slow | Medium | Fast
Artist: Koji Kondo
Album: Super Mario Sunshine
Song: Sirena Beach
Tabbed By: A Dead Fly

Standard Bass Tuning

G|----------------|--0---2---3---4-|4h5-------------|------1---2---3-|
D|------2---3---4-|----------------|------5-----5---|--4-------------|
A|2h3-------------|----------------|----------3-----|----------------|
E|----------------|----------------|----------------|----------------|

G|--5-------------|--6-------------|6h7-------------|----------------|
D|------5-------5-|------6---3-----|------7-------7-|5h6-----------6-|
A|----------3-----|------------4---|----------5-----|------4---6-----|
E|----------------|----------------|----------------|----------------|

G|----------------|--0---2---3---4-|4h5-------------|------1---2---3-|
D|------2---3---4-|----------------|------5-----5---|--4-------------|
A|2h3-------------|----------------|----------3-----|----------------|
E|----------------|----------------|----------------|----------------|

G|--5-------------|--6-------------|6h7-------------|2h3-------0---3-|
D|------5-------5-|------6---3-----|------7-------7-|------1---------|
A|----------3-----|------------4---|----------5-----|----------------|
E|----------------|----------------|----------------|----------------|

G|3h4-------1---4-|--3-------0---3-|1h2-----------2-|--3-------0---3-|
D|------2---------|------1---------|------0---3-----|------1---------|
A|----------------|----------------|----------------|----------------|
E|----------------|----------------|----------------|----------------|

Play the last set of bars 4 times

Then Repeat the entire thing over one time and fade out toward the end
of the second play through.

Email me at azlizard13@yahoo.com

Please give me credit if you use this tab for a video.