Login or Register to remove this ad. | Advertise Here

Gelato Beach (Super Mario Sunshine) Bass Tab

Submitted: Sep 02, 2010 by A Dead Fly

5
Average: 5 (1 vote)
Download | Listen
Game: Super Mario Sunshine
Composer(s): Koji Kondo, Shinobu Tanaka
Style: Transcription
Series: Mario

AutoScroll: Slow | Medium | Fast
Standard Bass Tuning

Song: Gelato Beach
Artist: Koji Kondo
Album: Super Mario Sunshine

Tabbed by Austin (A Dead Fly)

This is just the bass tab, see the guitar tab for guitars and
other instruments.  The timing in some places is strange and 
switches between quarter and half notes to triplets, listen to the 
song to get it correct.  I have split it into three parts

Main Part
(Sometimes it only plays the first half of this part and I will label
this as Half Main Part)
G|---------------|----------------|---------------|----------------|
D|---------------|----------------|---------------|----------------|
A|-3-------------|-2--------------|-3-------------|-2------5-------|
E|--------3------|---------3------|--------3------|----------------|

G|---------------|----------------|---------------|----------------|
D|---------------|----------------|---------------|----------------|
A|-3-------------|-5--------------|-3-------------|-3---0h2h3h5----|
E|--------3------|---------3------|--------3------|----------------|

G|---------------|----------------|---------------|----------------|
D|---------------|----------------|---------------|----------------|
A|-3-------------|-2--------------|-3-------------|-2------5-------|
E|--------3------|---------3------|--------3------|----------------|

G|---------------|----------------|---------------|----------------|
D|---------------|----------------|---------------|----------------|
A|-3-------------|-5--------------|-3-------------|-3---0h5h7p3----|
E|--------3------|---------3------|--------3------|----------------|



Bridge #1

G|---------------|----------------|-5-------------|-5-------5------|
D|-3-------------|-3-------7b8r---|--------5------|-------------5--|
A|--------3------|----------------|---------------|-----3----------|
E|---------------|----------------|---------------|----------------|

G|---------------|----------------|-5-------------|-5-------5------|
D|-3-------------|-3-------7b8r---|--------5------|-------------5--|
A|--------3------|----------------|---------------|-----3----------|
E|---------------|----------------|---------------|----------------|

G|---------------|----------------|-5------4------|-2--------------|
D|-3-------------|-3-------7b8r---|---------------|----------7b8r--|
A|--------3------|----------------|---------------|----------------|
E|---------------|----------------|---------------|----------------|

G|---------------|----------------|---------------|----------------|
D|-6-------------|-6--------------|-5-------------|-5--------------|
A|---------------|----------------|---------------|----------------|
E|--------4------|---------4------|--------3------|----------3b4r--|



Bridge #2

G|---------------| Play This Seven Times
D|---------------|
A|---------------|
E|-8--8----8--8\\|

G|---------------| Play This The Eighth Time
D|---------------|
A|---------------|
E|-8--8----8--8-9|

Then

G|---------------| Play This Seven Times
D|---------------|
A|---------------|
E|-11-11---11-11\|

G|---------------| Play This The Eighth Time
D|---------------|
A|---------------|
E|-11-11--11-11-9|

Then

G|---------------|----------------|---------------|----------------|
D|-7-------------|---------7------|-5-------------|-3------2---0---|
A|--------7------|-5--------------|---------5-----|----------------|
E|---------------|----------------|---------------|----------------|

G|---------------|----------------|---------------|----------------|
D|-2------2------|-1-------1------|-0-------0-----|----------------|
A|---------------|----------------|---------------|---------5------|
E|---------------|----------------|---------------|-3-----3-----3--|



Song Order
Main Part X1
Bridge #1 X1
Half Main Part X1
Bridge #2 X1
Half Main Part X1
Short Break
Main Part X1
Bridge #1 X1
Half Main Part X1
Bridge #2 X1
Half Main Part X1
Short Break
Half Main Part X1

Key
\ -Slide Down
H -Hammer On
P -Pull Off
B -Bend up to note listed
r -Release note

Email questions or comments to azlizard13@yahoo.com
Message me if you want a guitar pro file.
Please give me credit if you use this tab for a video.