Login or Register to remove this ad. | Advertise Here

Gelato Beach (Super Mario Sunshine) Guitar Tab

Submitted: Sep 02, 2010 by A Dead Fly

5
Average: 5 (1 vote)
Download | Listen
Game: Super Mario Sunshine
Composer(s): Koji Kondo, Shinobu Tanaka
Style: 2 or more instruments, Transcription, Tremolo
Series: Mario

AutoScroll: Slow | Medium | Fast
Standard Tuning

Song: Gelato Beach
Artist: Koji Kondo
Album: Super Mario Sunshine

Tabbed by Austin (A Dead Fly)

This tab includes 5 instruments: The Lead Guitar, The Saxophone,
The Slide Guitar, Keyboard Fills, and Strings.

I have labeled the song into three parts: The Main Part, The Slidge Guitar
Bridge, and The Saxophone Bridge.

The timing in some places is strange and switches between quarter notes
and triplets, listen to the song to get it correct.  All instruments
transcribed for guitar.


Main Part

Lead Guitar
                          
e|---12--12------|--------10T-----|---12--12------|--------10T-----|
B|----------13---|----------------|----------13---|----------------|
G|-------------12|--10------------|-------------12|--10------------|
D|---------------|----------------|---------------|----------------|
A|---------------|----------------|---------------|----------------|
E|---------------|----------------|---------------|----------------|

e|---12--12-12-12|-13-------------|---------------|----------------|
B|---------------|-----10--10-12--|-13T-----------|(13T)-----------|
G|---------------|----------------|---------------|----------------|
D|---------------|----------------|---------------|----------------|
A|---------------|----------------|---------------|----------------|
E|---------------|----------------|---------------|----------------|


Slide Guitar Bridge

Lead Guitar

e|---13--13-13-13|-13-------------|-12T-----------|(12T)-----------|
B|---------------|-----13---13--15|---------------|----------------|
G|---------------|----------------|---------------|----------------|
D|---------------|----------------|---------------|----------------|
A|---------------|----------------|---------------|----------------|
E|---------------|----------------|---------------|----------------|

e|---13--13-13-13|-13-------------|-12T-----------|----------------|
B|---------------|-----13---13--15|---------------|-13T------------|
G|---------------|----------------|---------------|----------------|
D|---------------|----------------|---------------|----------------|
A|---------------|----------------|---------------|----------------|
E|---------------|----------------|---------------|----------------|

e|---13--13-13-13|-13-------------|-12T----10T----|-9T-------------|
B|---------------|-----13---13--15|---------------|----------------|
G|---------------|----------------|---------------|----------------|
D|---------------|----------------|---------------|----------------|
A|---------------|----------------|---------------|----------------|
E|---------------|----------------|---------------|----------------|

e|---------------|----------------|---------------|-15T------------|
B|------13-13--13|--13--13--15--13|-12T-----------|----------------|
G|---------------|----------------|---------------|----------------|
D|---------------|----------------|---------------|----------------|
A|---------------|----------------|---------------|----------------|
E|---------------|----------------|---------------|----------------|


Slide Guitar (Plays at same time as lead guitar riff above)

Plays This Three Times
e|---------------|----------------|---------------|----------------|
B|---------------|----------------|---------------|----------------|
G|-2/////////////|/10V-----------\|\9V------------|-(9V)-----------|
D|---------------|----------------|---------------|----------------|
A|---------------|----------------|---------------|----------------|
E|---------------|----------------|---------------|----------------|

Then Finishes with this
e|---------------|----------------|---------------|----------------|
B|---------------|----------------|---------------|----------------|
G|-1/////////////|/5V-------------|-4/////////////|/12V------------|
D|---------------|----------------|---------------|----------------|
A|---------------|----------------|---------------|----------------|
E|---------------|----------------|---------------|----------------|


Keyboard - Sounds like a Marimba or something
(This small riff comes in at the very last two bars of the slide guitar
bridge)
e|---------------|-------------15-|
B|------3-----6--|--8----12-------|
G|---------------|----------------|
D|---------------|----------------|
A|---------------|----------------|
E|---------------|----------------|



Saxophone Bridge

Saxophone

e|---------------|----------------|---------------|----------------|
B|---------------|----------------|---------------|----------------|
G|----5----5---5-|--3-----------3-|--0------------|----------------|
D|---------------|----------3-----|---------------|----------------|
A|---------------|----------------|---------------|-3--------------|
E|---------------|----------------|---------------|----------------|

e|---------------|----------------|---------------|----------------|
B|---------------|----------3-----|---------------|----------------|
G|----5----5---5-|--3-----------3-|--5------------|-(5)------------|
D|---------------|----------------|---------------|----------------|
A|---------------|----------------|---------------|----------------|
E|---------------|----------------|---------------|----------------|

e|---------------|----------------|---------------|----------------|
B|----4----4---4-|--------------2-|---------------|----------------|
G|---------------|--6-------1-----|--3------------|----------------|
D|---------------|----------------|---------------|-1--------------|
A|---------------|----------------|---------------|----------------|
E|---------------|----------------|---------------|----------------|

e|---------------|----------1-----|---------------|----------------|
B|----4----4---4-|--2-----------2-|--4------------|-(4)------------|
G|---------------|----------------|---------------|----------------|
D|---------------|----------------|---------------|----------------|
A|---------------|----------------|---------------|----------------|
E|---------------|----------------|---------------|----------------|

e|---------------|----------------|---------------|----------------|
B|---------------|----------------|---------------|----------------|
G|----5----5---5-|--5-----------5-|--4------------|----------------|
D|---------------|----------7-----|---------------|--5-------------|
A|---------------|----------------|---------------|----------------|
E|---------------|----------------|---------------|----------------|

e|---------------|----------------|---------------|----------------|
B|---------------|----------------|---------------|----------------|
G|----5----5---5-|--5-----------5-|--4------------|----------------|
D|---------------|----------7-----|---------------|--5-------------|
A|---------------|----------------|---------------|----------------|
E|---------------|----------------|---------------|----------------|


Strings
(Enter in on the last 8 bars of the saxophone bridge)
   
e|-15<<<---------|-14-------------|-13------------|-12-------------|
B|---------------|----------------|---------------|----------------|
G|---------------|----------------|---------------|----------------|
D|---------------|----------------|---------------|----------------|
A|---------------|----------------|---------------|----------------|
E|---------------|----------------|---------------|----------------|

e|-15<<<---------|--------15------|-13------------|----------------|
B|---------------|----------------|---------------|----------------|
G|---------------|-12-------------|---------------|-12-------------|
D|---------------|----------------|---------------|----------------|
A|---------------|----------------|---------------|----------------|
E|---------------|----------------|---------------|----------------|


Song Order

Main Part X2
Slide Guitar Bridge X1
Main Part X1
Saxophone Bridge X1
Main Part X1
Short Break
Main Part X2
Slide Guitar Bridge X1
Main Part X1
Saxophone Bridge X1
Main Part X1
Short Break
Main Part X1

Key
T - Tremolo Pick 16th Notes
V - Vibrato
/ - Slide Up
\ - Slide Down
()- Continue to play listed note
<<- Fade In

That's all of it...
Send questions or comments to azlizard13@yahoo.com
I can send you a guitar pro file if you message me.
Please give me credit if you use this tab for a video.