Login or Register to remove this ad. | Advertise Here

Comet Observatory (Super Mario Galaxy) Guitar Tab

Submitted: Oct 24, 2011 by bubblingbeebles

4.6
Average: 4.6 (5 votes)
Download | Listen
Game: Super Mario Galaxy
Composer(s): Koji Kondo, Mahito Yokota
Style: Arrangement, Fingerstyle
Series: Mario

AutoScroll: Slow | Medium | Fast
Super Mario Galaxy 
The Comet Observatory
Composed by Mahito Yokota and Koji Kondo
Arranged by bubblingbeebles

Drop D Tuning


----5-5----5-5---|-----5-5-------5--|----5-5----5-5---|-----5-5-------5-|
-----------------|------------------|-----------------|---------------2-|
-----------------|---0------2-------|-----------------|---0------2----2-|
--2-----4--------|------------------|--2-----4--------|---------------2-|
--0-----0--------|---0------0-------|--0-----0--------|---0------0----0-|
-----------------|------------------|-----------------|-----------------|


------2----------|------------------|-----------------|-----------------|----------------|
---------2-------|---5--3-----------|---0-------------|--3--2---3-2-----|----------------|
----2------------|---------3--------|-6----7----------|-------0------0--|--4----4---2----|
--4--------------|------------------|-----------------|-----------------|-----3----------|
-----------------|------------------|--------7--------|--0------0-------|----------------|
--0--------------|---4--------------|-5------5--------|-----------------|--0--------0----|


-------2---------|------------------|------5----------|-----------------|--3-2----2--0---|
---------2-------|---5--3-----------|----3-----3------|---10-8----------|-------------23-|
-----2-----------|--------3---------|--4--------------|-----------------|------2---------|
--4--------------|------------------|-----------------|-----------------|----------------|
-----------------|------------------|-----------------|-----------------|--0------0------|
--0--------------|---4--------------|--5--------------|---8-------------|--------------0-|


--5-------5----9-|--5---------------|--5-------5----9-|--5----12--9-----|
------5----------|---------3--------|--------5--------|-----------------|
----7-------7----|------------------|-----7-------7---|-----------------|
----0------------|------------------|-----------------|-----------------|
-----------------|------------------|-----------------|-----------------|
--5-------5------|--4------4--------|--2--------------|--0--------0-----|


--5-------5----9-|--5---------------|---------------0-|
------5----------|---------3--------|--0--2---3-----2-|
----7-------7----|------------------|--0--2---2-----2-|
----0------------|------------------|--2--2---2-----2-|
-----------------|------------------|--2--0---2-----0-|
--5-------5------|--4------4--------|-----------------|

1 comment on Comet Observatory

fuck yeah, I love this theme!

fuck yeah, I love this theme! This is a great arrangement.