Login or Register to remove this ad. | Advertise Here

Hacking to the Gate (Steins;Gate) Guitar Tab

Submitted: Jan 02, 2013 by cyx77 (Last updated: May 16, 2014)

5
Average: 5 (10 votes)
Download | Listen
Game: Steins;Gate
Composer(s): Takeshi Abo, Kanako Itou, Jun Murakami
Style: Arrangement, Fingerstyle

Click here for a video example.

AutoScroll: Slow | Medium | Fast
      				Hacking to the Gate
				Artist : Kanako Itou
			  Arranged By: Gianfranco Addante


*Note: Tied notes were not included in the ASCII version of this arrangement to make the tablature easier to read.
Please see the downloadable Guitar Pro 5 file to view this arrangement with the tied notes included.


Standard Tuning (Capo 5)




     E  E  E  Q    E  Q       E  E  E  Q    E  Q       E  E  E  Q    E  Q     
E||--------0--0-------0----|--------0--0-------0----|--------0--0-------0----|
B||-----1----------1-------|-----1----------1-------|-----1----------1-------|
G||--2---------------------|--1---------------------|--0---------------------|
D||------------------------|------------------------|------------------------|
A||--0---------------------|------------------------|------------------------|
E||------------------------|--0---------------------|--3---------------------|


  E  E  E  Q    E  E  E     E  E  E  E  E  E  E  E     E  E  E  E  E  E  E  E   
--------0--0-------------|--------------------------|--------------------------|
-----1-------------------|--------------0-----------|--1-----------3-----------|
-------------------2--1--|--2-----------2-----------|--0-----------0-----------|
--4-------------2--------|--------------------------|--------------------------|
-------------------------|--------------------------|--3--3--3--3--3--3--3--3--|
--2----------------------|--1--1--1--1--1--1--1--1--|--------------------------|


  E  E  E  E  E  E  E  E     E  E  E  E  E  E  E  E     Q    E  Q    E  E  E   
--0-----------1-----------|--4-----------7-----------|--0---------------------|
--1-----------1-----------|--------------------------|--1----1--1-------1--0--|
--2-----------2-----------|--------------------------|--2----2--2----2-----0--|
--0--0--0--0--0--0--0--0--|--2--2--2--2--2--2--2--2--|--3---------------------|
--------------------------|--------------------------|------------------------|
--------------------------|--0--0--0--0--0--0--0--0--|---------------------3--|


  E  E  H        E  E     E  E  E  Q    E  E  E     H        Q    Q     
-----------------------|-------------------------|---------------------|
-----1--3--------------|--0--------3----0--0--0--|----------------1----|
-----0--0--------2--2--|--0-----0----------------|--2--------2---------|
-----------------------|-----2-------------------|--2------------------|
-----------------------|-------------------------|--0------------------|
-----------------------|--0----------------------|---------------------|


  Q    E  Q.     E  E     Q    E  Q    E  E  E     E  E  E  Q    E  E  E   
-------0---------------|--0---------------------|----------------0--------|
--3-------3------3--3--|--0----0--0-------3--1--|-------------------3--1--|
--2-------2------------|--0------------0-----2--|-----0--1--2----------0--|
-----------------------|------------------------|-------------------------|
-----------------------|---------------------0--|-----------0-------------|
--1-------1------------|--3---------------------|----------------------3--|


  Q    E  Q    Q.        Q    E  Q    E  E  E     E  E  H        E  E   
----------------------|--0---------------------|-----------------------|
-------1--3-----------|--1----1--1-------1--0--|-----1--3--------------|
-------0--0----0------|--2----2--2----2-----0--|-----0--0--------2--2--|
----------------------|--3---------------------|-----------------------|
----------------------|------------------------|-----------------------|
---------------3------|---------------------3--|-----------------------|


  Q    E  Q    E  E  E     H        Q    Q       Q    E  Q.     E  E   
---------------0--------|----------------0----|--1--------------------|
--0-------3-------3--1--|---------------------|--1----1--1---------1--|
--0----0-------------2--|-----------2---------|--2--------------2-----|
------------------------|---------------------|-----------------------|
---------------------0--|---------------------|-----------------------|
--0---------------------|---------------------|--1--------------------|


  Q    E  Q    E  E  E     Q.     E  Q    E  E     E  E  Q    E  E  E  E   
------------------------|-----------------------|-----0--0----0-----------|
--0----1--3-------0--1--|---------1--3----------|-----1--1-------1--3--1--|
--0----0--0----0-----2--|------------0----0--2--|-----2--2-------------2--|
------------------------|-----------------------|-----2--2-------------3--|
---------------------0--|--------------------0--|-----0--0----------------|
--3---------------------|------------3----------|-------------------------|


  Q    Q    E  Q    E     E  E  E  H        E     Q    E  Q    E  E  E   
------------1--0-------|-----------------------|-------1--0-------------|
--------------------3--|-----1--3--0-----------|---------------0--3--1--|
-------2------------0--|-----0--0--0--------0--|--0------------------2--|
------------3----------|-----------------------|--2------------------2--|
-----------------------|-----------------------|---------------------0--|
--------------------3--|-----------------------|--0---------------------|


  E  H        E  E  E     E  E  Q.     E  E  E     E  E  H        E  E   
--------------0--------|------------------0-----|-----0-----------------|
-----------------3--1--|---------------------3--|--------0--------------|
--------------------2--|-----2--2------2-----0--|-----------------0--0--|
--------------------3--|------------------------|-----------------------|
-----------------------|------------------------|-----------------------|
--------------------1--|---------------------3--|-----------------------|


  Q    E  Q    Q    E     E  E  Q    E  Q    E     Q    Q    E  Q    E   
--0--------------------|-----0--0----0----------|------------1--0-------|
--0-------3------------|-----1--1-------3----1--|--------------------3--|
--0------------0----2--|-----2--2------------2--|-------2------------0--|
--------------------2--|-----2--2------------3--|-----------------------|
--------------------0--|-----0--0---------------|-----------------------|
--0--------------------|-------------3----------|--------------------3--|


  E  E  E  H        E     Q    E  Q    E  E  E     E  H        E  E  E   
-----------------------|-------1--0-------------|-----------------------|
-----1--3--0--------L--|---------------0--3--1--|-----------------0--1--|
-----------------------|--0------------------2--|--------------2-----2--|
-----------------------|--2------------------2--|--------------------3--|
-----------------------|---------------------0--|-----------------------|
-----------------------|--0---------------------|--------------------1--|


  Q    E  Q    E  E  E     Q    E  Q.     E  E     E  E  E  H        E   
------------------------|-------0---------1--0--|--------0--1--------1--|
-------3--1----0--1--3--|----------3---------0--|-----3-----1--------0--|
---------------------0--|--------------------1--|-----------2--------1--|
---------------------0--|-----------------------|-----------------------|
------------------------|-----------------------|-----------------------|
---------------------3--|--------------------0--|-----------1--------0--|


  E  Q    Q    E  Q       Q    E  E  E  E  Q       E  E  E  E  E  E  E  E   
-----3----0-------0----|-------0--0-----0--2----|--3--2--------------2--0--|
----------0----3--0----|-------------4----------|--------3--3-----0-----0--|
----------0-------1----|------------------------|-----------------------0--|
-----------------------|------------------------|--------------0-----------|
-----------------------|-------------2----------|-----------------------3--|
----------3-------0----|------------------------|--0-----------------------|


  E  H        E  E  E     Q    E  Q    Q    E     E  E  E  Q    E  E  E   
-----------------------|-------0---------------|-------------------------|
--------------0--3--1--|----------3------------|-----0--0-------------0--|
--------------------2--|----------2----2----2--|-------------------2-----|
-----------------------|----------0------------|----------------1--------|
--------------------0--|-----------------------|-------------------------|
-----------------------|--------------------3--|-----------2-------------|


  E  E  E  E  E  E  E  E     H        E  E  E  E     Q    E  Q    Q    E   
--3--3--5--3--------2--0--|--------------0-----0--|----------2---------0--|
-----------------3-----0--|-----------------3--1--|-------1--3----3----0--|
-----------------------0--|--------------------2--|----------2---------0--|
--------------0-----------|-----------------------|----------0------------|
-----------------------3--|--------------------0--|-----------------------|
--0-----------------------|-----------------------|--------------------0--|


  Q    E  E  E  E  Q       E  E  E  E  E  E  E  E     E  H        E  E  E   
-------0--0-----0--2----|--3--2--------------2--0--|-----------------------|
-------------4----------|--------3--3-----0-----0--|--------------0--3--1--|
------------------------|-----------------------0--|--------------------2--|
------------------------|--------------0-----------|-----------------------|
-------------2----------|-----------------------3--|--------------------0--|
------------------------|--0-----------------------|-----------------------|


  Q    E  Q    Q    E     E  E  E  Q    E  E  E     E  E  E  E  E  E  E  E   
-------0--2---------2--|-----3--2----------------|--3--3--5--3--------2--3--|
----------3----3-------|----------------------0--|--0--------------3-----1--|
----------2------------|-------------------2-----|-----------------------0--|
----------0------------|----------------1--------|--------------0-----------|
-----------------------|-----------2-------------|-----------------------3--|
--------------------3--|-------------------------|--0-----------------------|


  H        E  E  E  E     Q    E  Q    Q    E     E  E  H.            
--------------3--2--0--|-------0--5------------|-----2--0------------|
--------------------1--|----------3----3----3--|---------------------|
--------------------2--|----------2---------0--|---------------------|
-----------------------|----------0------------|---------------------|
--------------------0--|-----------------------|---------------------|
-----------------------|--------------------0--|---------------------|


  E  Q    Q    Q    E     W                  
--3--3----0---------3--|--L----------------||
--0------------0----1--|--L----------------||
--0-----------------0--|--L----------------||
----------0------------|-------------------||
--------------------3--|--L----------------||
--0--------------------|-------------------||




Duration Legend
---------------
W - whole
H - half
Q - quarter
E - 8th
S - 16th
T - 32nd
X - 64th
. - note dotted
|-n-|  - n-tuplets


Tablature Legend
----------------
L - tied note
x - dead note
g - grace note
(n) - ghost note
> - accentuded note
NH - natural harmonic
AH - artificial harmonic
TH - tapped harmonic
SH - semi harmonic
PH - pitch harmonic
h - hammer on
p - pull off
b - bend
br - bendRelease
pb - preBend
pbr - preBendRelease
brb - bendReleaseBend
\n/ - tremolo bar dip
\n - tremolo bar dive
-/n - tremolo bar Release up
/n\ - tremolo bar inverted dip
/n - tremolo bar return
-\n - tremolo bar Release down
S - shift slide
s - legato slide
/ -  slide into from below or out of upwards
\ -  slide into from above or out of downwards
~ - vibrato
W - wide vibrato
tr - trill
TP - tremolo picking
T - tapping
S - slap
P - pop
< - fade in
^ - brush up
v - brush down

4 comments on Hacking to the Gate

THIS IS FUN TO PLAY

THIS IS FUN TO PLAY

EL SPY KANGAROO

I Agree

I tried to make it easy to maneuver between the chords so that it would be fun. Glad to hear it worked out well.

Nice!

5

Hey mister. This is nice tab. It's so cool! Sonovabetch.

Thanks Man

United States chaos and invade