Login or Register to remove this ad. | Advertise Here

Star Light Zone (Sonic the Hedgehog) Guitar Tab

Submitted: Feb 10, 2010 by LTRobson

5
Average: 5 (1 vote)
Download | Listen
Game: Sonic the Hedgehog
Composer(s): Masato Nakamura
Style: Arrangement, Fingerstyle, Transcription
Series: Sonic the Hedgehog

AutoScroll: Slow | Medium | Fast
 Sonic The Hedgehog - Star Light Zone (Mega Drive)
 Simple solo guitar arrangement
 Tabbed by LTRobson 10/02/10

 Standard tuning

 ---------3---|-0---0--0------0--1-|-3--5--6--5---3---
 -------------|--------------------|------------------
 -0---2-------|-0---0--0-----------|-0--------6-------
 -------------|--------------------|------------------
 -------------|-3------3-----------|-1--------0-------
 -------------|--------------------|------------------

 -1---1--1---1--0--1-|----1--1------0--|-1---1--1-----------0-
 --------------------|----------3------|------------------3---
 -2---2--2---2--2--2-|----2--2--0---0--|-0---0--0-------------
 -0------0-----------|-----------------|----------------------
 ----------4---------|-3--------2------|----------------------
 --------------------|-----------------|-3---------3----------


 -1--3--4--3---1---|-0---0--0----1--0-
 ------------------|------------------
 -0--0-----0-------|-0---0--0---------
 ------------------|------------------
 -2--------2-------|-3------3---------
 ------------------|------------------


 --------------3---|-0---0--0------0--1-|-3--5--6--5---3---
 -3----------------|--------------------|------------------
 -0----0---2-------|-0---0--0-----------|-0--------6-------
 -0----------------|--------------------|------------------
 ------------------|-3------3-----------|-1--------0-------
 ------3-----------|--------------------|------------------

 -1---1--1---1--0--1-|----1--1------0--|-1---1--1-----------0-
 --------------------|----------3------|------------------3---
 -2---2--2---2--2--2-|----2--2--0---0--|-0---0--0-------------
 -0------0-----------|-----------------|----------------------
 ----------4---------|-3--------2------|----------------------
 --------------------|-----------------|-3---------3----------

 -1---3--4--3---1---
 -------------------
 -0---0-----0-------
 -------------------
 -2---------2-------
 -------------------

 Next section

 -0------------------0------|----0-------------------
 --------1-1-----1-1----1---|--------1--------1------
 -0--0h2------2-------------|--------------2-----2---
 ---------------------------|-0------0--------0------
 -3------3-------3----------|------------------------
 ---------------------------|------------------------

 --------------------0------|----0--1--0--1--3---
 --------1-1-----1-1----1---|--------------------
 ----0h2------2-------------|--------------------
 -2------2-------2----------|-3-----3-----3------
 ---------------------------|--------------------
 ---------------------------|--------------------

 --------------------0------|----0-------------------
 -1------1-1-----1-1----1---|--------1--------1------
 -0--0h2------2-------------|------------2-2-----2---
 ---------------------------|-0------0--------0------
 -3------3-------3----------|------------------------
 ---------------------------|------------------------
                                     *
 --------------------0-----0-1-|-3---8-|
 --------1-1-----1-1----1------|-------|
 ----0h2------2----------------|-----0-|
 -2------2-------2-------------|-0-----|
 ------------------------------|-------|
 ------------------------------|-------|

 * At this point, play from the beginning