Login or Register to remove this ad. | Advertise Here

Green Hill Zone (Sonic the Hedgehog) Guitar Tab

Submitted: Jan 24, 2011 by sir0nion

5
Average: 5 (7 votes)
Download | Listen
Game: Sonic the Hedgehog
Composer(s): Masato Nakamura
Style: Arrangement, Fingerstyle, Natural harmonics
Series: Sonic the Hedgehog

AutoScroll: Slow | Medium | Fast
Song Title: 	Green Hill Zone
Game: 		Sonic the Hedgehog
Composer: 	Masato Nakamura
Tabbed By: 	James Carson
Date: 		06/23/2010
     Q    E  E  Q    Q       E  E  Q    Q    Q       Q    E  E  Q    Q     
E||-----------------------|-----------------------|-----------------------|
B||--0---------------0----|-------------0---------|--1-------0------------|
G||--0-------2-------0----|-----2-------0----2----|--2-------0-------2----|
D||----------3------------|-----3------------3----|------------------3----|
A||--3----3-----3----3----|--3-----3----3----3----|--3----3-----3----3----|
E||-----------------------|-----------------------|-----------------------|


  Q    Q    Q    Q       Q    E  E  Q    Q       Q    E  E  Q    Q     
----------------------|-----------------------|-----------------------|
----------------------|----------0-------1----|----------0-------1----|
----------------------|--2-------0-------2----|--2-------0-------2----|
----------------------|--3--------------------|--3--------------------|
--3----0----1----2----|--3----3-----3----3----|--3----3-----3----3----|
----------------------|-----------------------|-----------------------|


  Q    E  E  Q    Q       Q    Q    Q    E   E     Q    Q    E  E  E  E   
-----------------------|------------------------|------------------------|
--1-------0------------|------------------------|------------1--------1--|
--2-------0------------|------------------------|---------------2--------|
-----------------------|-----------------0h--2--|--3----3----3-----3-----|
--3----3-----3----3----|--3----3----3-----------|------------------------|
-----------------------|------------------------|------------------------|


  Q    E  E  E  E  E  E     Q    E  E  E  E  E  E     Q    E  E  E  E  E  E   
-------------------------|-------------0-----------|-------------------------|
--0----1--0--------------|----------------3-----1--|--0----1--0--------------|
----------------0--------|----------2--------------|----------------0--------|
--2----2-----2-----0--2--|--3----3-----3-----3-----|--2----2-----2-----0--2--|
----------------2--------|-------------------------|----------------2--------|
-------------------------|-------------------------|-------------------------|


  Q    Q    E  E  E  E     Q    E  E  E  E  Q       Q    E  E  E  E  E  E   
------------------------|------------------------|-------------------------|
------------1--------1--|--0----1--0-------------|-------------------------|
---------------2--------|----------------0-------|----------2--2--------2--|
--3----3----3-----3-----|--2----2-----2-----2----|----------------3--------|
------------------------|------------------------|--5----5-----5-----5-----|
------------------------|------------------------|-------------------------|


  Q    E  E  E  E  E  E     Q    Q    E  E  E  E     Q    E  E  E  E  Q     
-------------------------|------------------------|------------------------|
-------------------------|------------1--------1--|--0----1--0-------------|
--0----2--0--------------|---------------2--------|----------------0-------|
-------------------0--2--|--3----3----3-----3-----|--2----2-----2-----2----|
--3----3-----3--3--------|------------------------|------------------------|
-------------------------|------------------------|------------------------|


  Q    E  E  E  E  E  E     Q    E  E  E  E  Q       Q    Q    E  E  E  E   
-------------0-----------|------------------------|------------------------|
----------------3-----1--|--0----1--0-------------|------------1--------1--|
----------2--------------|----------------0-------|---------------2--2-----|
--3----3-----3-----3-----|--2----2-----2-----2----|--3----3----3-----3-----|
-------------------------|------------------------|------------------------|
-------------------------|------------------------|------------------------|


  Q    E  E  E  E  Q       Q    E  E  E  E  E  E     Q    E  E  Q    E  E   
------------------------|-------------------------|------------------------|
--0----1--0-------------|-------------------------|------------------------|
----------------0-------|----------2--2--------2--|--0----2--0-------------|
--2----2-----2-----2----|----------------3--------|---------------------2--|
------------------------|--5----5-----5-----5-----|--3----3-----3----3-----|
------------------------|-------------------------|------------------------|


  Q.     Q.     Q       E  Q.     E  E  E  E     Q.     Q.     Q     
---------------------|------------------------|---------------------|
--3------------------|------------3-----3--5--|---------------------|
---------------------|---------------5--------|---------------------|
---------------------|------------------------|---------------------|
--1------0-----------|------------------------|--0------2------3----|
----------------3----|--L--1------0-----0-----|---------------------|


  E  Q.     E  E  E  E     Q.     Q.     Q       E  Q.     E  E  E  E   
---------------------0--|---------------------|------------------------|
---------------1--1-----|--4------------------|------------3--1--4--3--|
------------------2-----|--1------0-----------|------------------------|
-----0------2-----------|----------------3----|--L--1------0-----------|
--L---------------------|---------------------|------------------3-----|
------------------------|---------------------|------------------------|


  E  E  E  Q.     E   E      E  E  E  E  E  E  E  E    
-----3--5--3------5--12--|---L--0--1--0--3--0--0-----||
-------------------------|------------------------1--||
-------------------------|---------------------------||
-----------0-------------|------2--3--2--5--2--2-----||
-------------------------|------------------------3--||
--3---------------3------|---------------------------||




Duration Legend
---------------
W - whole
H - half
Q - quarter
E - 8th
S - 16th
T - 32nd
X - 64th
. - note dotted
|-n-|  - n-tuplets


Tablature Legend
----------------
L - tied note
x - dead note
g - grace note
(n) - ghost note
> - accentuded note
NH - natural harmonic
AH - artificial harmonic
TH - tapped harmonic
SH - semi harmonic
PH - pitch harmonic
h - hammer on
p - pull off
b - bend
br - bendRelease
pb - preBend
pbr - preBendRelease
brb - bendReleaseBend
\n/ - tremolo bar dip
\n - tremolo bar dive
-/n - tremolo bar Release up
/n\ - tremolo bar inverted dip
/n - tremolo bar return
-\n - tremolo bar Release down
S - shift slide
s - legato slide
/ -  slide into from below or out of upwards
\ -  slide into from above or out of downwards
~ - vibrato
W - wide vibrato
tr - trill
TP - tremolo picking
T - tapping
S - slap
P - pop
< - fade in
^ - brush up
v - brush down

4 comments on Green Hill Zone

I like it! For the second to

I like it! For the second to last measure, I had an easier time making that high note an artificial harmonic:

  E  E  E  Q.     E   E   
-----3--5--3------5------|
----------------------5<>|
-------------------------|
-----------0-------------|
-------------------------|
--3---------------3------|

ooh

5

Fantastic tab, I love this tune, it was my fisrt Megadrive game -(^^)- tyvm

Sounds perfect :D Thanks for

Sounds perfect :D Thanks for tabbing it.

Wow, you beat me to the

Wow, you beat me to the punch, dude, this is amazing. Great work.