Login or Register to remove this ad. | Advertise Here

His World (Sonic the Hedgehog (Next Gen)) Guitar Tab

Submitted: Aug 26, 2009 by GameMozart (Last updated: Dec 25, 2009)

0
Download | Listen
Game: Sonic the Hedgehog (Next Gen)
Composer(s): Jun Senoue, Takahito Eguchi, Hideaki Kobayashi, Mariko Nanba, Taihei Sato
Style: Alternate picking, Transcription
Series: Sonic the Hedgehog

AutoScroll: Slow | Medium | Fast
His World [Crush 40’s version]
from Sonic the Hedgehog (2006)
Composed by Jun Senoue
Tabbed by Nicolas Busanello (a.k.a. GameMozart)

Guitar in Drop-D (if you don’t know how to tune this way, Google it!)


Tempo: Q = 90


INTRO (with some sort of delay effect):

    E. S  E  E   H       E. S  E E    Q    Q      E. S  E E   H
    ~~~~~~~~~~~~~~~~~~~~~~~~~~~~~~~~~~~~~~~~~~~~~~~~~~~~~~~~~~~~  
E|-----12-L-----------|-----12-L------15---14--|-----12-L---------|
B|--12-------12--15---|--12------12------------|--12------12--15--|
G|--------------------|------------------------|------------------|
D|--------------------|------------------------|------------------|
A|--------------------|------------------------|------------------|
D|--------------------|------------------------|------------------|

   E. S  E E   Q    Q
   ~~~~~~~~~~~~~~~~~~~
|-----12-L-----15---17--|
|--12------12-----------|
|-----------------------|
|-----------------------|
|-----------------------|
|-----------------------|

VERSE:

  S S S S E S S S S E Q   S S S S E S S S S E  Q
|-----------------------|-------------------------|
|-----------------------|-------------------------|
|-----------------------|-------------------------|
|-9-9-9-9---7-7-7-7-----|-5-5-5-5---2-2-2-2-5--4--|
|-7-7-7-7---5-5-5-5-----|-3-3-3-3---0-0-0-0-3--2--|
|-----------------------|-------------------------|

PRE-CHORUS:

  S S S S E S S S S E Q    Q  Q  Q  Q     Q  Q  Q  Q
|-----------------------|--------------|----------------|
|-----------------------|--------------|----------------|
|-----------------------|--------------|----------------|
|-9-9-9-9---7-7-7-7-----|--2--4--5--4--|--2--4--5--7----|
|-7-7-7-7---5-5-5-5-----|--0--2--3--2--|--0--2--3--5----|
|-----------------------|--------------|----------------|

CHORUS:

  E  E  S S S S S S S S S S E    S S S S S E  S  S S  S  S   E  E
|------------------------------|-----------------------------------|
|------------------------------|-----------------------------------|
|------------------------------|-----------------------------------|
|-5--5--5-5-5-7-L---4-5-4------|-9-9-9-7-L-9--12-L-12-12-12--12-11-|
|-3--3--3-3-3-5-L-5-------5-2--|-7-7-7-5-L-7--10-L-10-10-10--10-9--|
|------------------------------|-----------------------------------|

  E  E  S S S S S S S S S S E    S S S S S E  S S E S  E E
|------------------------------|---------------------------|
|------------------------------|---------------------------|
|------------------------------|-----------------------7-6-|
|-5--5--5-5-5-7-L---4-5-4------|-9-9-9-7-L-9-----------5-4-|
|-3--3--3-3-3-5-L-5-------5-2--|-7-7-7-5-L-7--5-L-5-5------|
|------------------------------|--------------5-L-5-5------|

  E  E  S S S S S S S S S S E    S S S S S E  S S S S S  E E
|------------------------------|------------------------------|
|------------------------------|------------------------------|
|------------------------------|------------------------------|
|-5--5--5-5-5-7-L---4-5-4------|--------------5-L-5-5-5--5-4--|
|-3--3--3-3-3-5-L-5-------5-2--|-2-2-2-0-L-2--3-L-3-3-3--3-2--|
|------------------------------|-2-2-2-0-L-2------------------|

  E  S S S S S  S H     s E  S S S S S Q  E  E    E  E  S S S S S S S S S S E
|---------------------|-------------------------|------------------------------|
|---------------------|-------------------------|------------------------------|
|---------------2-L---|-------------------------|------------------------------|
|-2--2-2-2------0-L---|-------------------12-11-|-5--5--5-5-5-7-L---4-5-4------|
|-0--0-0-0------0-L---|-2-2--2-L-2-2-5-L--10-9--|-3--3--3-3-3-5-L-5-------5-2--|
|----------5-4--0-L---|-2-2--2-L-2-2-5-L--------|------------------------------|

  S S S S S E  S  S S  S  S   E  E    E  E  S S S S S S S S S S E
|-----------------------------------|------------------------------|
|-----------------------------------|------------------------------|
|-----------------------------------|------------------------------|
|-9-9-9-7-L-9--12-L-12-12-12--12-11-|-5--5--5-5-5-7-L---4-5-4------|
|-7-7-7-5-L-7--10-L-10-10-10--10-9--|-3--3--3-3-3-5-L-5-------5-2--|
|-----------------------------------|------------------------------|

  S S S S S E  S S E S  E E   E  E  S S S S S S S S S S E
|---------------------------|------------------------------|
|---------------------------|------------------------------|
|-----------------------7-6-|------------------------------|
|-9-9-9-7-L-9-----------5-4-|-5--5--5-5-5-7-----4-5-4------|
|-7-7-7-5-L-7--5-L-5-5------|-3--3--3-3-3-5---5-------5-2--|
|--------------5-L-5-5------|------------------------------|

  S S S S S E  S S S S S  E E    E  S S S S S  S H     S E  S E. S  H
|------------------------------|---------------------|-----------------|
|------------------------------|---------------------|-----------------|
|------------------------------|---------------2-L---|-----------------|
|--------------5-L-5-5-5--5-4--|-2--2-2-2------0-L---|-9-9--9-L-/12-L--|
|-2-2-2-0-L-2--3-L-3-3-3--3-2--|-0--0-0-0------0-L---|-7-7--7-L-/10-L--|
|-2-2-2-0-L-2------------------|----------5-4--0-L---|-----------------|


PRE-VERSE:
  
  S S S S E S S S S E E. S   Q  H.              
|--------------------------|----------|
|--------------------------|----4-----|
|------------------------2-/-4--L-----|
|-9-9-9-9---7-7-7-7------2-/-4--L-----|
|-7-7-7-7---5-5-5-5--------|----------|
|--------------------------|----------|


BREAK: 
   
  S   S  S S  S   S  S S S   S  S S  S E.  
|-----------------------------------------|
|-----------------------------------------|
|-----------------------------------------|
|-----------------------------------------|
|--------1/2---------1/2--------1/2----0--|
|-2---2-------2---2------2---2-------5-0--|
 P.M.--|     P.M.--|    P.M.--|


SOLO: (with slight delay and envelope filter a.k.a. auto-wah)

                                            |---3--||---3--||---3--||---3--|
  S  S  S S  S  S  S S   S S S S S S S S     S  S S  S  S S  S  S S  S  S S  E  S S Q
|----------------------------------------|---------------------------------------------|
|----------------------------------------|-----------------------------------10-8------|
|----------------------------------------|--t12p9p5-t12p9p5-t12p9p5-t12p9p5-------7-L--|
|--------------------------------5---5h7-|---------------------------------------------|
|-------1/2--------1/2-----1/2-5---7-----|---------------------------------------------|
|-2--2-------2--2--------2---------------|---------------------------------------------|
 P.M.-|     P.M.-|       


  S S S S S S S S E S S  Q     E  S S S E  S S E S E  E 
|---------------------------|-----------------------------|
|---------------------------|-/8--7-----10—8-L-7----------|
|---------7---7h9-L-9b12—9--|-------7-L----------7-9-/12--|
|-----5h7---9---------------|-----------------------------|
|-5/7-----------------------|-----------------------------|
|---------------------------|-----------------------------|


  S S S S S S S S S S S S E E     S S S S E  S S     S E. S S S S
|------------------------------|----------------------------------|
|------------------------------|----------------------------------|
|-7h9-x-4h7-x-2h4-x-0h2-X---0--|------7-5-L------(7)b9r7----------|
|-------------------------2----|----5----------5----------4/5-7/9-|
|------------------------------|--7----------7--------------------|
|------------------------------|----------------------------------|


   S S S S S S S S S S S S  E S S    E. S E  E  S  E. Q
|---------------------------7—8b10-|-8--7-L----------------|
|--------7-L---7-8-L-7-8-10--------|---------10-L--8--L----|
|--9-7-9-----9---------------------|-----------------------|
|----------------------------------|-----------------------|
|----------------------------------|-----------------------|
|----------------------------------|-----------------------|


 |---3---||---3---||---3---||---3---||---3---||---3---||---3---|                                     
  S  S  S  S  S  S  S  S  S  S  S  S  S  S  S  S  S  S  S  S  S  E
|-17-15-17-15p14----14-------12--------------------------------------|
|----------------17----17/15----15-12-15-12----12--------------------|
|-------------------------------------------14----14-12-14-12--------|
|-------------------------------------------------------------14-14--|
|--------------------------------------------------------------------|
|--------------------------------------------------------------------|


  S  S  S  S  S  S  S  S  S E  S  E  E     S  S  S  S  S  S  S  S  H
|-------------------12------------------|--------14-15-14-15-20-19--L---|
|----------------12----16-L-12-17b19-17-|--16-17------------------------|
|-------------14------------------------|-------------------------------|
|-------12-14---------------------------|-------------------------------|
|-12-14---------------------------------|-------------------------------|
|---------------------------------------|-------------------------------|


(Wild guess here. He plays something and does some stuff with the whammy bar. 
I don’t have one on my guitar so I couldn’t sort it out.)

   w
|------------|
|-[5]--------|
|-[5]--------|
|-[5]--------|
|------------|
|------------|

OUTRO:
  
  S S S S E S S S S E Q      Q  Q  Q  Q       Q  Q  Q  Q       W                   
|-----------------------||----------------||----------------|--------|
|-----------------------||----------------||----------------|--------|
|-----------------------||*--------------*||----------------|--------|
|-9-9-9-9---7-7-7-7-----||*--2--4--5--4--*||--2--4--5--7----|--L-----|
|-7-7-7-7---5-5-5-5-----||---0--2--3--2---||--0--2--3--5----|--L-----|
|-----------------------||----------------||----------------|--------|



ORDER OF PARTS:

INTRO
VERSE X7 (at the 3rd repeat, vocals start)
PRE-CHORUS
CHORUS
VERSE
PRE-VERSE
VERSE X5
PRE-CHORUS
CHORUS
BREAK X3
SOLO
CHROUS
VERSE
OUTRO

---------------------------------------------------------------
 
SYMBOLS:

~~~ - vibrato
t - tapping
h – hammer-on
p – pull-off
/ or \ - slide
XbY – bend 
XbYr – bend and release 
(X)bYr - pre-bend and release
[ ] – natural harmonic
P.M. – palm mute
x – mute string with fretting hand (I never know how this is actually called)

----------------------------------------------------------------

DURATIONS:

W - semibreve (whole)
H - minim (half)
Q - crotchet (quarter)
E - quaver (eighth)
S - semiquaver (sixteenth)
. - augmentation dot
|-n-| - n-tuplets
L - tied note/held note 

2 comments on His World

seems pretty good!

seems pretty good!

Orchestral intro

if anyone was wondering how to play the orchestral type intro it's

e|--0-2-3-5--0-2-3-5--0-2-3-0-3-0h2h3p2----
b|----------------------------------------------------5-3

Play that (three?) times then

e|--3--2--0--2--9-
b|----------------

Of course you could substitute the 0's on e for 5's on b.