Login or Register to remove this ad. | Advertise Here

Hydrocity (Sonic the Hedgehog 3) Bass Tab

Submitted: Apr 03, 2010 by auriplane

0
Download | Listen
Game: Sonic the Hedgehog 3
Composer(s): Brad Buxer, Various Composers, Michael Jackson
Style: Transcription
Series: Sonic the Hedgehog

AutoScroll: Slow | Medium | Fast
                       Sonic 3 - Hydrocity BASS TAB
                          Composed by Jun Senoue 

                  Tabbed by Auriplane (crystal@panix.com)



Five-string bass, standard tuning.  This song has a sixteenth note triplet
feel, which means when you see a pair of sixteenth notes, play the on-beat
one slightly longer, and the off-beat one slightly shorter/later.  (Like 
an eighth note triplet, followed by a sixteenth note triplet, hence the 
name.)

Click the download link for GP5, midi and sheet music.



        Part A


   E   S S S S E   S S E   E   S S  S S S S S S E   S S E   E   E 
G |--------------------------------|--5-----------------------------| \ 
D |--------------------------------|--------------------------------|  \ 
A |3---L-3-----------------------3-|------3-------------------------|   \
E |----------6-6-----5-5---6---6---|----------6-6-----5-5---6---6---|    |
B |--------------------------------|--------------------------------|    |
                                                                         |
                                                                         | x2
   E   S S S S E   S S E   E   S S  S S S S S S E   S S E   E   E        |
G |--------------------------------|--3-----------------------------|    |
D |--------------------------------|--------------------------------|    |
A |3---L-3-----------------------3-|------3-------------------------|   / 
E |----------6-6-----5-5---6---6---|----------6-6-----5-5---6---6---|  / 
B |--------------------------------|--------------------------------| /


        Part B


   E   E   E   S S S S E   E   E    S S E   E   S S Q.          E 
G |--------------------------------|--------------------------------|
D |--------------------------------|--6-----3---4-3-----------------|
A |--------------------------------|----6---------------------------|
E |4-------------------------------|4-------------------------------|
B |----7---6---6-7---7-6---4---6---|----------------------------9---|
                                                            
                                                            
   E   E   E   S S S S E   E   E    S S E   E   S S Q       S S E 
G |--------------------------------|--------------------------------|
D |--------------------------------|--8-----5---6-5-----------------|
A |--------------------------------|----8---------------------------|
E |6-------------------------------|6-----------------------6-6-L---|
B |----9---8---8-9---9-8---6---8---|--------------------------------|


   E   E   E   S S S S E   E   E    S S E   E   S S Q.          E 
G |--------------------------------|--------------------------------|
D |--------------------------------|--6-----3---4-3-----------------|
A |--------------------------------|----6---------------------------|
E |4-------------------------------|4-------------------------------|
B |----7---6---6-7---7-6---4---6---|----------------------------9---|

                                                            
   E   E   E   S S S S E   E   E    E   E   E   S S Q.          S S  
G |--------------------------------|--------------------------------|
D |--------------------------------|--------------------------------|
A |--------------------------------|--------------------------------|
E |6-------------------------------|----------------------------3-3-|
B |----9---8---8-9---9-8---6---8---|8---8---8---8-8-----------------|


        Part C


   E   S S S S E   S S E   Q        E   S S S S E   S S E   E   S S  
G |--------------------------------|--------------------------------|
D |--------------------5-----------|--------------------------------|
A |--------------------------------|--------------------------------|
E |------------------3-----3-------|4---L-4-4-4-------6-6---6---6-6-|
B |6---L-6-4-6---------------------|--------------------------------|
                                  
                                  
   E   S S S S E   S S E   Q        S S S S S S S S S S S S S S S S   
G |--------------------------------|--------------3-----------------|
D |--------------------5-----------|--------------------------------|
A |--------------------------------|3-3-L-3-------------------------|
E |------------------3-----3-------|--------6-6-L-----4-4---3-L-3-3-|
B |6---L-6-4-6---------------------|--------------------------------|


   E   S S S S E   S S E   Q        E   S S S S E   S S E   E   S S  
G |--------------------------------|--------------------------------|
D |--------------------5-----------|--------------------------------|
A |--------------------------------|--------------------------------|
E |------------------3-----3-------|4---L-4-4-4-------6-6---6---6-6-|
B |6---L-6-4-6---------------------|--------------------------------|
                                  

   E   S S S S E   S S E   E   E    S S S S S S E   S S E   S S S S
G |--------------------------------|--------------------------------|
D |--------------------------------|--------------------------------|
A |--------------------------------|--------------------------------|
E |4---L-4-4-4---------------------|--3---3---3-3---3-----------3-6-|
B |------------------6-6---6---6---|------------------------6-6-----|




Duration Legend
---------------
W - whole
H - half
Q - quarter
E - 8th
S - 16th
. - note dotted


Tablature Legend
----------------
L - tied note

1 comment on Hydrocity

Beastly bro.

Beastly bro.