Login or Register to remove this ad. | Advertise Here

Sky Sanctuary Zone (Sonic and Knuckles) Guitar Tab

Submitted: Jan 17, 2012 by natenmn

5
Average: 5 (3 votes)
Download | Listen
Game: Sonic and Knuckles
Composer(s): Howard Drossin
Style: Arrangement, Fingerstyle, Natural harmonics
Series: Sonic the Hedgehog

AutoScroll: Slow | Medium | Fast
                 Sky Sanctuary Zone - Sonic & Knuckles
                             Howard Drossin                        
                     (Arranged by Nathan Nordstrom)


Tab: Nathan Nordstrom
1/17/2012


                                                                      
Acoustic Guitar 1
*Please note the tuning*


    4/4 145bpm

     |--3-|        |--3-|           |--3-|        |--3-|         
     Q    E  E  E  Q    E  E  E     Q    E  E  E  Q    E  E  E   
F||----------------2----0--L-----|----------------2----0--L-----|
C||--0------------------------4--|--0------------------------4--|
G||-------4--L--0----------------|-------4--L--0----------------|
D||------------------------------|------------------------------|
A||------------------------------|------------------------------|
E||--3----------3-------3--------|--3----------3-------3--------|


  ^                              ^                         
  |--3-|        |--3-|           |--3-|                    
  Q    E  E  E  Q    E  E  E     Q    E  E  E  E  E  Q     
--0-------------7----6--L-----|--0------------------------|
--0----4--L--0-------------7--|--0----4-----0-------------|
-------------0----------------|-------4--L--0-----3-------|
------------------------------|-------------------5-------|
------------------------------|---------------------------|
--3----------3-------3--------|--0----------0-------------|


       NH    NH                   ^                      
       E     H.           S  S    E  E  E  E  E  Q.      
|---<>19--<>19-----------------|--0---------------------|
|-------------------------0h-4-|--0-----0--4-----0------|
|*-----------------------------|-----0--------0---------|
|*-----------------------------|------------------------|
|------3-----3-----------------|--3--------------3------|
|------------------------------|------------------------|


     NH    NH                   ^                      
     E     H.           S  S    E  E  E  E  E  Q.      
--<>19--<>19-----------------|--0---------------------|
------------------------0h-4-|--0-----0--4-----0------|
-----------------------------|-----3--------3---------|
-----------------------------|------------------------|
-----1-----1-----------------|--1--------------1------|
-----------------------------|------------------------|


                                ^                       
  E  E  E  E  E  E  E  S  S     E  E  E  E  E  E  Q     
--------4-----7--------------|--0--------4--------4----|
-----------------------------|--0----------------------|
-----------0-----0-----0h-1S-|--2-----2--------2-------|
-----------------------------|-----3--------3----------|
--0--0--------------0--------|--0--------0--------0----|
-----------------------------|-------------------------|


                          1st Ending----------------

  E  Q    E  E  E  E  E     E  E  E  E  E  E  E  E     
-------------------------|---------------------------||
-------------0--------3--|-----0--2--3-----2--0------||
----------1-----3--1-----|--------------1--------1--*||
-------------------------|--------------------------*||
-------------------------|---------------------------||
--4--4-------------4-----|--4--------4--------4------||


2nd Ending--------------

  E  E  E  E  E  E  Q       Q.      Q.     E  E     E  H.           E   
--------------------0----|---------10------9--9--|--L------------------|
-----0--2--3-----2-------|--7--------------------|-----7------------L--|
--------------1----------|--0--------------0--0--|--L--0------------L--|
-------------------------|-----------------------|---------------------|
-------------------------|-----------------------|---------------------|
--4--------4--------4----|-----------------------|---------------------|


   Q.      Q.      E   E     E   Q.      Q    Q       Q.      Q.     E  E   
----------10-------9---9--|--L--12------10----9----|---------10------9--9--|
---8----------------------|------------------------|--7--------------------|
--------------------------|------------------------|--0--------------0--0--|
--------------------------|------------------------|-----------------------|
--11--------------11--11--|--L--11-----------------|-----------------------|
--------------------------|------------------------|-----------------------|


            Da Coda

                                                  ^                       
  E  H.           E      Q.      Q.      Q        Q     E   Q     Q.      
--L------------------|------------------10----|--14----12--10----12------|
-----7------------L--|----------12------------|--12----------------------|
--L--0------------L--|--13--------------------|--------------------------|
---------------------|------------------------|--------------------------|
---------------------|--11--------------11----|--13--------------13------|
---------------------|------------------------|--------------------------|


     NH    NH                  ^                   
     E     H.           S S    Q.     Q    Q.      
----------------------------|--0------------------|
--<>12--<>12--------------4-|--0------4----0------|
------------------------5---|---------------------|
----------------------------|---------------------|
-----3-----3----------------|--3-----------3------|
----------------------------|---------------------|


     NH    NH                     ^                     
     E     H.            S  S     Q.      Q     Q.      
---------------------------11-|--12------11------------|
--<>12--<>12------------12----|--12------------12------|
------------------------------|------------------------|
------------------------------|------------------------|
-----1-----1------------------|--13------------13------|
------------------------------|------------------------|


     NH                                                                     
     E  Q    Q    E  E  E     E  Q    E  E  E  E  E     Q.     Q.     Q     
---------------------2-----|-------------2-----------|--5------3------2----|
--------0---------0-----0--|--L--0----0-----0-----0--|---------------------|
--<>12---------------------|-------------------------|---------------------|
---------------------------|-------------------------|---------------------|
-----0-------0-------0-----|--0-------0--------0-----|---------------------|
---------------------------|-------------------------|--4------4------4----|


         D.C. al Coda    Coda     Slow Tempo-------------------------------

                                                    ^                       
  E  Q    E  Q    Q        Q.      Q.      Q        Q     E   Q     Q.      
--L--0------------0----|------------------10----|--14----12--10----12------|
-------------3---------|----------12------------|--12----------------------|
-----------------------|--13--------------------|--------------------------|
-----------------------|------------------------|--------------------------|
--1-------1-------1----|--11--------------11----|--13--------------13------|
-----------------------|------------------------|--------------------------|


  ^                                      
  W                   W                  
--7----------------|--L----------------||
--7----------------|--L----------------||
--5----------------|--L----------------||
-------------------|-------------------||
-------------------|-------------------||
-------------------|-------------------||




Duration Legend
---------------
W - whole
H - half
Q - quarter
E - 8th
S - 16th
T - 32nd
X - 64th
. - note dotted
|-n-|  - n-tuplets


Tablature Legend
----------------
L - tied note
x - dead note
g - grace note
(n) - ghost note
> - accentuded note
NH - natural harmonic
AH - artificial harmonic
TH - tapped harmonic
SH - semi harmonic
PH - pitch harmonic
h - hammer on
p - pull off
b - bend
br - bendRelease
pb - preBend
pbr - preBendRelease
brb - bendReleaseBend
\n/ - tremolo bar dip
\n - tremolo bar dive
-/n - tremolo bar Release up
/n\ - tremolo bar inverted dip
/n - tremolo bar return
-\n - tremolo bar Release down
S - shift slide
s - legato slide
/ -  slide into from below or out of upwards
\ -  slide into from above or out of downwards
~ - vibrato
W - wide vibrato
tr - trill
TP - tremolo picking
T - tapping
S - slap
P - pop
< - fade in
^ - brush up
v - brush down

3 comments on Sky Sanctuary Zone

Awesome but it looks pretty

Awesome but it looks pretty challenging.

MORE SONIC

i mantear at this

5

i mantear at this

ENCOURAGING MESSAGE

5

ENCOURAGING MESSAGE