Login or Register to remove this ad. | Advertise Here

Fierce Battle (Shin Megami Tensei III: Nocturne) Guitar Tab

Submitted: Apr 25, 2010 by GameMozart

0
Download | Listen
Game: Shin Megami Tensei III: Nocturne
Composer(s): Shoji Meguro
Style: Alternate picking, Transcription
Series: Megami Tensei

AutoScroll: Slow | Medium | Fast
~ Fierce Battle
from Shin Megami Tensei III: Nocturne
- Composed by Shouji Meguro, Kenichi Tsuchiya and Toshiko Tasaki
- Tabbed by GameMozart
April 21st 2010

Tune down to Drop-C# (or Drop-D, but you'll have to lower everything half-step)

 INTRO (Q = 145)

    E E E E E E E E   E  E E E  E E E E   E E E E E  E E E   E E E  E E E  E E
D#|-----------------|-------------------|------------------|--------------------|
A#|-----------------|-------------------|------------------|--------------------|
F#|-----------7-----|-------------------|------------------|--------------------|
C#|-----9-----------|-11-----10-----9---|---7------------7-|--------------------|
G#|-7-7---7-7---7-7-|----7-7----7-7---7-|-7---7-7-10-7-7---|-7-7-10-7-7-10-9-10-|
C#|-----------------|-------------------|------------------|--------------------|
    P.M.........................................................................
 

  E E E E  E  E E  E    E  E  E  E  E  E  E  E    E  E E  E E E E  E   E E  E E E  E E E
|---------------------|-------------------------|--------------------|-------------------|
|---------------------|-10-------10-12----10----|--------------------|-------------------|
|-9-8-9-11-12-9-11-12-|----11-12-------12----11-|-12-9-11-8-9--------|-------------------|
|---------------------|-------------------------|-------------9-10-7-|-9----7------------|
|---------------------|-------------------------|--------------------|---10---9-10-7-9-6-|
|---------------------|-------------------------|--------------------|-------------------|

 
  E E E E E  E E E    E E E  E E E  E E   E  E E E E E E  E   E E E E E E E E
|-------------------|-------------------|-------------------|-----------------||
|-------------------|-------------------|-------------------|-----------------||
|-------------------|-------------------|-------------------|-----------------||
|-------------------|-7------7-9----7---|-------------------|-----------------||
|-7-6-7-9-10-7-9-10-|---9-10-----10---9-|-10-7-9-6-7--------|-----------------||
|-------------------|-------------------|------------9-10-7-|-9-5-7-4-5-2-4-1-||
  P.M.........................................................................  


 MAIN "THEME" (Q = 105)

     Q  E S S  S E. Q   S S S S S S S S S  S S S  S E.   x8
||--------------------|----------------------------------||
||--------------------|----------------------------------||
||*--9--9-x-10---10---|-----9-----9-----10-----10---12--*||
||*--9--9-x-10---10---|-----9-----9-----10-----10---12--*||
||---7--7-x-8----8----|-7-7---7-7---7-7----8-8-----------||
||--------------------|----------------------------------||
                        P.M.  P.M.  P.M.   P.M. 


     Q  E S S  Q  E  S S    Q  E  S S  Q  E  S S   Q  E S S  Q  E  E 
||------------------------|----------------------|-------------------|
||------------------------|----------------------|-------------------|
||*--9--9---11-L--11---12-|-L--12---14-L--14---9-|-L--9---11-L--11---|
||*--9--9---11-L--11---12-|-L--12---14-L--14---9-|-L--9---11-L--11---|
||---7--7---9--L--9----10-|-L--10---12-L--12---7-|-L--7---9--L--9----|
||------------------------|----------------------|-------------------|


  S  S S S  S S S  S S S  S S S  E S
|-------------------------------------||       Then repeat the Main "Theme"
|-------------------------------------||     part all over again and that's 
|-10-----10-----10-----10-----10\9---*||     it.
|-10-----10-----10-----10-----10\9---*||
|-8--8-8-8--8-8-8--8-8-8--8-8-8=\7----||
|-------------------------------------||
     P.M.   P.M.   P.M.   P.M.


============================================================================================

Duration Legend:

 W = Semibreve (Whole)
 H = Minim (Half)
 Q = Crotchet (Quarter)
 E = Quaver (Eigth)
 S = Semiquaver (Sixteenth)
 . = Augmentation dot (raises duration of the note by half its value)
 |-n-| = Tuplets (where "n" indicates whethet it's a triplet, a quintuplet...)

-----------------------------

Tablature Legend:

 P.M. - palm mute
 \ - slide
 L - tied note
 x - 

============================================================================================