Login or Register to remove this ad. | Advertise Here

Into the Darkness (Astal) Guitar Tab

Submitted: Nov 17, 2006 by archard (Last updated: Sep 08, 2009)

2
Average: 2 (4 votes)
Download | Listen
Game: Astal
Composer(s): Unknown
Style: 2 or more instruments, Transcription

AutoScroll: Slow | Medium | Fast
Into the Darkness
Astal
Composed by ???
Tabbed by Richard Schaefer (richard@gametabs.net)
11/17/06

Guitar 1
e------7-5-7---------7-5-7------------8-10-12------------------------8h10--
B----7-------------7---------5-----12----------12-10-12-----10-8----------8
G----------------------------------------------------------------11--------
D--------------------------------------------------------------------------
A--7-------------7---------------------------------------------------------
E--------------------------------------------------------------------------

e-------------8--------------5---------8h10-----
B--5--7--7h8--------3--5-7-8-----8--7---------10
D-----------------------------------------------
A-----------------------------------------------
E-----------------------------------------------

Repeat from beginning then...

e----------7----------------------------------------------------
B----7-8-------10-12-10------------------------------10-12-10---
G--9-----9--------------12-11--12-9--------9-11-9-11------------
D---------------------------------------12--------------------12
A---------------------------------------------------------------
E---------------------------------------------------------------

e-----------------8-10-8-7-------------------------
B-------------10-----------10-8-----------------------
G--9--11--12--------------------11-9--------------9---
D------------------------------------12-10---12-------
A--------------------------------------------------
E--------------------------------------------------

e---------------------------------------------------
B--12-10------------------------------------12------
G--------12-11-9-11-9----------9-11-12-9-12--------9
D---------------------12-10-12----------------------
A---------------------------------------------------
E---------------------------------------------------





Into the Darkness
Astal
Composed by ???
Tabbed by Richard Schaefer (richard@gametabs.net)
11/17/06

Guitar 2
e-----------------12---
B--------------10----12
G------9-11-12---------
D----------------------
A--7-9-----------------
E---------------------- x4

e------------0-2-3-------------2-3-12
B----------1-----------------3-------
G--------0---------------0-2---------
D----2-4-------------0-4-------------
A--3---------------------------------
E------------------------------------

e-----------------12---
B--------------10----12
G------9-11-12---------
D----------------------
A--7-9-----------------
E---------------------- x6

e--------0-2-3-5-8---------------0-2-3-7-12---7--------
B------1-----------------------1-----------------------
G------------------------------------------------------
D----2-----------------------2-------------------------
A--3-----------------------3---------------------------
E------------------------------------------------------

e--------0-2-3-5-10--------------0-2-3-5-7-12---10
B------1------------------------------------------
G-------------------------------------------------
D----2-----------------------2-4------------------
A--3----------------------------------------------
E-------------------------------------------------

e-----------------12---
B--------------10----12
G------9-11-12---------
D----------------------
A--7-9-----------------
E---------------------- x4

e--------0-2-3-5-8---------------0-2-3-7-12---7--------
B------1-----------------------1-----------------------
G------------------------------------------------------
D----2-----------------------2-------------------------
A--3-----------------------3---------------------------
E------------------------------------------------------

e--------0-2-3-5-10--------------0-2-3-5-7-10-----2-5-7-8-10-14
B------1-------------------------------------------------------
G-----------------------------------------------2--------------
D----2-----------------------2-4--------------4----------------
A--3-----------------------------------------------------------
E--------------------------------------------------------------

1 comment on Into the Darkness

this song is one of the best

this song is one of the best game song i ever heard
good tab thanx

never played the game tho