Login or Register to remove this ad. | Advertise Here

Iron Blue Intention (Castlevania: Bloodlines) Guitar Tab

Submitted: Jan 25, 2009 by fabaaun

5
Average: 5 (3 votes)
Download | Listen
Game: Castlevania: Bloodlines
Composer(s): Michiru Yamane
Style: Transcription
Series: Castlevania

AutoScroll: Slow | Medium | Fast
Name of song: Iron Blue Intention
Name of game: Castlevania Bloodline
Composer of song: Michiru Yamane 
Name of tabber: fabaaun
Date tab was made: 01/21/09 

h = hammer on
x = dead note
() = the note inside is opitional

Play it as A B C B C and repeat.

PART A:
e|---0-1----0-1----0-1-0-----0-1-3--0-1-3--0-1-3-1-0--|
B|-3------3------3-------3----------------------------|
G|----------------------------------------------------|
D|----------------------------------------------------|
A|----------------------------------------------------|
E|----------------------------------------------------|

e|---3-5----3-5----3-5-3-----3-5-6--5-3---------------3----|
B|-6------6------6-------6--------------6-5-3---3-5-6---5--|
G|--------------------------------------------5------------|
D|---------------------------------------------------------|
A|---------------------------------------------------------|
E|---------------------------------------------------------|

e|---x-0-x-1----0-1-0----0-x-1-x-3--0-1-3-1-0-|
B|-3----------3-------3-----------------------|
G|--------------------------------------------|
D|--------------------------------------------|
A|--------------------------------------------|
E|--------------------------------------------|

e|---x-3-x-5----3-5-3----3-5-6--3---------------|
B|-6----------6-------6-----------5-3-------3-5-|
G|------------------------------------5---5-----|
D|--------------------------------------5-------|
A|----------------------------------------------|
E|----------------------------------------------|

PART B:
e|----------------1--1-0---0-3---------------|
B|-----------------------3-----2-------------|
G|----------2-0-3-----------------3-2---0----|
D|---0-2-3----------------------------2---3--|
A|-3-----------------------------------------|
E|-------------------------------------------|

e|-----0-1--0-1-3-----0----0-1-------------------(0)-1--0---0-|
B|---3------------1-3----3--------------1h3--2h3----------3---|
G|-2----------------------------0-2h3--3----------------------|
D|------------------------------------------------------------|
A|------------------------------------------------------------|
E|------------------------------------------------------------|

e|----------------1--1-0---0-3---------------|
B|-----------------------3-----2-------------|
G|----------2-0-3-----------------3-2---0----|
D|---0-2-3----------------------------2---3--|
A|-3-----------------------------------------|
E|-------------------------------------------|

e|-----0-1--0-1-3-----0----0-1--------------|
B|---3------------1-3----3--------------1h3-|
G|-2----------------------------0-2h3--3----|
D|------------------------------------------|
A|------------------------------------------|
E|------------------------------------------|

e|----------------------------------1-4-5-|
B|------------0---0--0-1-3--0-x-0-3-------|
G|-0-x-0-x-0----3-------------------------|
D|----------------------------------------|
A|----------------------------------------|
E|----------------------------------------|

PART C:
e|-----1-3--0-0-0--------------1-3-|
B|----------------3-3-2-2----------|
G|-2-2---------------------2-2-----|
D|---------------------------------|
A|---------------------------------|
E|---------------------------------|

e|-0-0-0-1-1-2-2-3-3-5-5-6-6-7-7-8-8-9-9-10-10-12-12-13--|
B|-------------------------------------------------------|
G|-------------------------------------------------------|
D|-------------------------------------------------------|
A|-------------------------------------------------------|
E|-------------------------------------------------------|

e|-12-10-13--12-10-10--9-7-9-------|
B|---------------------------------|
G|---------------------------------|
D|---------------------------------|
A|---------------------------------|
E|---------------------------------|

2 comments on Iron Blue Intention

Portrait of Ruin Version

5

I never played this one, but this song is on Portrait of Ruin too, as a remix! This tab works just about perfectly for the PoR version too ^-^

Not only the PoR...

Not only for the Portrait of Ruin, but for Judgment too (it is Eric's theme) and DraculaX Rondo of Blood either (this one is Japan only).

Thanks for commenting ^^