Login or Register to remove this ad. | Advertise Here

Title Screen (Questron II) Guitar Tab

Submitted: Aug 27, 2011 by omgpwnies

5
Average: 5 (1 vote)
Download | Listen
Game: Questron II
Composer(s): Unknown
Style: Transcription

AutoScroll: Slow | Medium | Fast
Song Title:  Title 
Game: Questron II

Composer: Not listed as a seperate entity, so...
Programming and artwork:Westwood Associates
Storyline and original design:Quest Software. 
Produced: Strategic Simulations, Inc

Tabber: omgpwnies
08/27/2010



E ------11-9-----------------------------------------11-9----------|
B ---9--------12---11-12-11-9-------7--9--7--9-------------12-11---|
G -----------------------------------------------------------------|
D -----------------------------------------------------------------|
A -----------------------------------------------------------------|
E -----------------------------------------------------------------|


-----9--11-11------14---------------11-9--------------------------|
--12------------------14-16-9-------------12-11-----12-11-9--9----|
------------------------------------------------------------------|
------------------------------------------------------------------|
------------------------------------------------------------------|
------------------------------------------------------------------|


-----9--7--6-------------11-9----------------9-------11-11-14------||
--7----------------7--9-------------12-11-12------------------14-16||
-------------------------------------------------------------------||
-------------------------------------------------------------------||
-------------------------------------------------------------------||
-------------------------------------------------------------------||


----------9-------------9---11-----9--------7-------------7--9----|
-------9-------------9-------------------7-------------7----------|
o---9-------------9-------------------8-------------8-------------|
o-----------------------------------------------------------------|
------------------------------------------------------------------|
------------------------------------------------------------------|

				Ending 1
--7--------6-------------6-----|-----4--6--7-----------------------||
--------5-------------5--------|--------------7-------7--9--7------||
-----6-------------6-----------|----------------------------------o||
-------------------------------|----------------------------------o||
-------------------------------|-----------------------------------||
-------------------------------|-----------------------------------||


Ending 2
--4--6--7--4---|----7------------------||
---------------|-----------------------||
---------------|-------4---------------||
---------------|-----------------------||
---------------|-----------------------||
---------------|-----------------------||