Login or Register to remove this ad. | Advertise Here

Rage (Quake II) Guitar Tab

Submitted: May 23, 2011 by lonlonJT

4
Average: 4 (2 votes)
Download | Listen
Game: Quake II
Composer(s): Bill Brown, Sonic Mayhem
Style: Transcription

AutoScroll: Slow | Medium | Fast
Rage - Quake II soundtrack

Music by Sonic Mayhem

Tabbed by lonlonJT

Drop D tuning. Full structure not included, these are just the riffs.

E --------------------------------------------------------
B --------------------------------------------------------
G --------------------------------------------------------
D --------------------------------------------------------
A --------------------------------------------------------
D -0-1-0-1-0-0---0-1-0-1-0-0---0-1-0-1-0-0---0-0-1-0-1-0-0

E ----------------------------------------------------------------
B ----------------------------------------------------------------
G ----------------------------------------------------------------
D -0-0---0---0---------------------0-0---0---0--------------------
A -0-0---0---0---------------------0-0---0---0--------------------
D -0-0---0---0---0-0-2-3-0-3-5-6-7-0-0---0---0---0-0-2-3-0-3-5-6-7

E ----------------------------------------------------------
B ----------------------------------------------------------
G ----------------------------------------------------------
D -0-0---0---0---------------------0-0---0---0-----0-6---0-1
A -0-0---0---0---------------------0-0---0---0-----0-6---0-1
D -0-0---0---0---0-0-2-3-0-3-5-6-7-0-0---0---0---0-0-6---0-1

E --------------------------------------------------------------
B --------------------------------------------------------------
G --------------------------------------------------------------
D --------------------------------------------------------------
A ---------------------3---3-5-6---------------------3---5-5-5-5
D -0-2-3-0-3-5-6-0-6-7---7-------0-2-3-0-3-5-6-0-6-7---0--------

E ---------------------------------------------------------
B ---------------------------------------------------------
G ---------------------------------------------------------
D -----------------------------------------------0-6----0-1
A ---------------------3---3-5-6-----------------0-6----0-1
D -0-2-3-0-3-5-6-0-6-7---7-------0-2-3-0-3-5-6-0-0-6----0-1

E ----------------------------------------
B ----------------------------------------
G ----------------------------------------
D ----------------------------------------
A ----------------------------------------
D -0-1-0-0---2-3-2---3-5-3-5-3-3---5-6-5-5