Login or Register to remove this ad. | Advertise Here

Operation Overload (Quake II) Guitar Tab

Submitted: May 23, 2011 by lonlonJT

5
Average: 5 (1 vote)
Download | Listen
Game: Quake II
Composer(s): Bill Brown, Sonic Mayhem
Style: Transcription

AutoScroll: Slow | Medium | Fast
Operation Overlord - Quake II soundtrack

Music by Sonic Mayhem

Tabbed by lonlonJT


Full structure not included, these are just the main riffs.

Note: gametabs user "soundsnstuff" has done a full/better tab
of this song, but it has been mislabeled as "Base". Enjoy


E ---------------------------------|-h5-----7h10p7h10p7h10p7h10p7h10
B ---------------------------------|---h5---------------------------
G ---------------------------------|-----h5-------------------------
D -8s9---9-9---8s9---9-9---11s12---|--------------------------------
A -6s7---7-7---6s7---7-7----9s10---|--------------------------------
E ---------------------------------|--------------------------------

E -------------------12----------------------12---
B -------------------15b17-------------------15b17
G ------------------------------------------------
D -2-2-2-2---2-2-2-2-------2-2-2-2---2-2-2-2------
A -2-2-2-2---2-2-2-2-------2-2-2-2---2-2-2-2------
E -0-0-0-0---0-0-0-0-------0-0-0-0---0-0-0-0------

E ------------------------------------------------------------
B ------------------------------------------------------------
G ------------------------------------------------------------
D -2-2-2-2-2-2-5-2-2-------------2-2-2-2-2-2-5-2-2------------
A -2-2-2-2-2-2-5-2-2-------------2-2-2-2-2-2-5-2-2------------
E -0-0-0-0-0-0-3-0-0-x-x-x-x-x-x-0-0-0-0-0-0-3-0-0-x-x-x-x-x-x

E ----------------------------------------------------------------
B ----------------------------------------------------------------
G ----------------------------------------------------------------
D ----------------------------------------------------------------
A ----------------------------------------------------------------
E -0-6-7-0-2-3-0-3-2-0-6-7-0-3-2-0---6-7-0-2-3-0-3-2-0-6-7-0-3-2-0