Login or Register to remove this ad. | Advertise Here

Kill Ratio (Quake II) Guitar Tab

Submitted: May 23, 2011 by lonlonJT

5
Average: 5 (1 vote)
Download | Listen
Game: Quake II
Composer(s): Bill Brown, Sonic Mayhem
Style: Transcription

AutoScroll: Slow | Medium | Fast

Kill Ratio - Quake II soundtrack

Music by Sonic Mayhem

Tabbed by lonlonJT


Full structure not included, these are just the riffs.

E --------------------------------------------------------
B --------------------------------------------------------
G --------------------------------------------------------
D --------------------------------------------------------
A -------7p0-5p0-------5p0-8-----------7p0-5p0-------5p0--
E -0-0-0---------6h7p0-------0-0-0-0-0---------6h7p0-----6

E -----------------------------------------------------
B -----------------------------------------------------
G -----------------------------------------------------
D -----------------------------------------------------
A -3-2-2-2---2-5-2-2-2---2-3-2-5-2-7-2-9-10-3-2-2-2---2
E -1-0-0-0---0-3-0-0-0---0-1-0-3-0-5-0-7-8--1-0-0-0---0

E -----------------------------------------
B -----------------------------------------
G -----------------------------------------
D -----------------------------------------
A -3-2-2-2---2-5-2-2-2---2-3-2-5-2-7-2-9-10
E -1-0-0-0---0-3-0-0-0---0-1-0-3-0-5-0-7-8-

E -------------------------------------------------
B -------------------------------------------------
G -------------------------------------------------
D -------------------------------------------------
A -2---5-7-8-3-2---1-7-8-3-2---5-7-8-3-2---5-7-8-3-
E -0---3-5-6-1-0---3-5-6-1-0---3-5-6-1-0---3-5-6-1-

E --------------------------------------------------------------
B --------------------------------------------------------------
G --------------------------------------------------------------
D --------------------------------------------------------------
A -5------------------------------------------------------------
E -3-3-3-3-3-3-8-6-3-8-6-3-8-4-3-4-3-3-3-3-3-3-8-6-3-8-6-8-4-3-4

E -------------------------------------------------
B -------------------------------------------------
G -------------------------------------------------
D -------------------------------------------------
A -2---5-7-8-3-1---5-7-8-3-2---5-7-8-3-2---5-7-8-3-
E -0---3-5-6-1-0---3-5-6-1-0---3-5-6-1-0---3-5-6-1-

E --------------------------------------------------------
B --------------------------------------------------------
G --------------------------------------------------------
D --------------------------------------------------------
A -------7p0-5p0-------5p0-8-----------7p0-5p0-------5p0--
E -0-0-0---------6h7p0-------0-0-0-0-0---------6h7p0-----6