Login or Register to remove this ad. | Advertise Here

Descent into Cerberon (Quake II) Guitar Tab

Submitted: May 23, 2011 by lonlonJT

5
Average: 5 (1 vote)
Download | Listen
Game: Quake II
Composer(s): Bill Brown, Sonic Mayhem
Style: Transcription

AutoScroll: Slow | Medium | Fast
Descent into Cerberon - Quake II soundtrack

Music by Sonic Mayhem

Tabbed by lonlonJT

(tabbed for standard tuning- song is in C)


Full structure not included, these are just the main riffs.


E --------------------------------------------------
B --------------------------------------------------
G --------------------------------------------------
D --------------------------------------------------
A --------------------------------------------------
E -0-2-0-2-0-2-0-2-2-3-0-0-|-0-2-0-2-0-2-0-2-2-3-0-0

E ------------------------------------------------------------------------
B ------------------------------------------------------------------------
G ------------------------------------------------------------------------
D -------------------------------------------------------|-2-4-4-4-4-5-6-7
A -------------------------------------------------------|-2-4-4-4-4-5-6-7 (bridge)
E -0-2-0-2-0-2-0-2-2-3-0-0-|-0-2-0-2-0-2-0-3-3-3-3-0-0---|-0-2-2-2-2-3-4-5


E ------------------------------------------------
B ------------------------------------------------
G -------6-6-6-5-5-5-9-9-9-----------------6-6-6-5
D -4-4-4-6-6-6-5-5-5-9-9-9-9-9-7-7---4-4-4-6-6-6-5
A -4-4-4-4-4-4-3-3-3-7-7-7-9-9-7-7---4-4-4-4-4-4-3
E -2-2-2-------------------7-7-5-5---2-2-2--------


E ----------------------------------------------------------------
B ----------------------------------------------------------------
G -------6-6-6-5-5-5-9-9-9----------------------------------------
D -4-4-4-6-6-6-5-5-5-9-9-9-9-9-7-7---9-7-7---9-7-7---9-7-7---9-7-7
A -4-4-4-4-4-4-3-3-3-7-7-7-9-9-7-7---9-7-7---9-7-7---9-7-7---9-7-7
E -2-2-2-------------------7-7-5-5---7-5-5---7-5-5---7-5-5---7-5-5