Login or Register to remove this ad. | Advertise Here

Big Gun (Quake II) Guitar Tab

Submitted: May 23, 2011 by lonlonJT (Last updated: May 23, 2011)

5
Average: 5 (1 vote)
Download | Listen
Game: Quake II
Composer(s): Bill Brown, Sonic Mayhem
Style: Transcription

Click here for a video example.

AutoScroll: Slow | Medium | Fast
Big Gun - Quake II soundtrack

Music by Sonic Mayhem

Tabbed by lonlonJT 21/5/11


I haven't included the full structure or some of the little
lead guitar licks, these are just the main riffs. Enjoy!



E -0-0-0-0-0-0-0-0-0-0-0-0-0-0-0-0-0-0-0-0-0-0-0-0-0-0-0-0-0-0-0-0
B -5-5-5-5-5-5-5-6-6-6-6-6-6-6-6-6-7-7-7-7-7-7-7-8-8-8-8-8-8-8-8-8
G ----------------------------------------------------------------
D -2-3---------3-4-----------------4-5-------------2-2-2-2-2-3-4-5
A -2-3---------3-4-----------------4-5-------------2-2-2-2-2-3-4-5
E -0-1-x-x-x-x-1-2-x-x-x-x-x-x-x-x-2-3-x-x-x-x-x-x-0-0-0-0-0-1-2-3


E -0-0-0-0-0-0-0-0-0-0-0-0-0-0-0-0-0-0-0-0-0-0-0-0-0-0-0-0-0-0-0-0
B -5-5-5-5-5-5-5-6-6-6-6-6-6-6-6-6-7-7-7-7-7-7-7-8-8-8-8-8-8-8-8-8
G -9-------------8---------8s5-----4-------------3---------3------
D -9-------------8---------8s5-----4-------------3---------3-2----
A -7-------------6---------6s3-----2-------------1---------1-2----
E -----------------------------------------------------------0----


E ---------0--------0---------0------------
B -------0--------3------------------------
G --------------3---------2-3-------3-----3
D -----2------3---------1---------5-----5--
A ---2------1---------0--------------------
E -0----------------------------3-----1----


E -0-------8---10-7-----------------0-------7---8-6----------------
B -----------------------------------------------------------------
G -----------------------------------------------------------------
D -2-3---------3--4-----------------4-5-------------2-2-2-2-2-3-4-5
A -2-3---------3--4-----------------4-5-------------2-2-2-2-2-3-4-5
E -0-1-x-x-x-x-1--2-x-x-x-x-x-x-x-x-2-3-x-x-x-x-x-x-0-0-0-0-0-1-2-3