Login or Register to remove this ad. | Advertise Here

Under the Apple Tree (Crisis Core: Final Fantasy VII) Guitar Tab

Submitted: Apr 02, 2008 by archard (Last updated: Dec 22, 2009)

4.6
Average: 4.6 (20 votes)
Download | Listen
Game: Crisis Core: Final Fantasy VII
Composer(s): Takeharu Ishimoto
Style: Transcription
Series: Final Fantasy

AutoScroll: Slow | Medium | Fast
Crisis core theme - "Under the apple tree"

Alright, here's something to help you play the crisis core theme.
The way you play/hit the chords, and the timig for it, you'llhave 
to figure it by yourself. I never did tabs in my life so, this 
one can be pretty messed. But i hope this can help you out.

First Part

    Em      ->    G   ->     Em
e|----------------------------------------------------|
B|----------------------------------------------------|
G|------0---------0----------0------------------------|
D|--0h2-2---------0----------2------------------------|
A|--2---2---------2----------2------------------------|
E|------0---------3----------0------------------------|

    Em      ->    G   ->     Em
e|-----------------------------------------------------|
B|-------------------------------3---------------------|
G|------0---------0----------0---0---------------------|
D|--0h2-2---------0----------2---2---------------------|
A|--2---2---------2----------2---2---------------------|
E|------0---------3----------0---0---------------------|

Second part 
  
e|-----------------------------------------------------|
B|---3s5--5--3--5--------------------------------------|
G|------------------2--4s5--4--------------------------| (x2)
D|-----------------------------------------------------|
A|-----------------------------------------------------|
E|-----------------------------------------------------|

e|-----------------------------------------------------|
B|---------------3-------------------------------------|
G|-----4s5-5--5-----5--4--0----------------------------| (x3) 
D|-----------------------------------------------------|
A|-----------------------------------------------------|
E|-----------------------------------------------------|


e|-----------------------------------------------------|
B|---------------3-----5--3----------------------------|
G|-----4s5-5--5-----5----------------------------------| 
D|-----------------------------------------------------|
A|-----------------------------------------------------|
E|-----------------------------------------------------|

Repeate firts part here.
Repeate second part... then, go to this final part:

Final part

e|----3-2-3---2-3-3---------3-2-3--2-3-3s5-------------|
B|-------------------3---------------------5-----------|
G|-----------------------------------------------------| 
D|-----------------------------------------------------|
A|-----------------------------------------------------|
E|-----------------------------------------------------|

e|----3-2-3---2-3-3---------3-2-3--2-3-3s7--5-3-2------|
B|-------------------3-3-------------------------------|
G|-----------------------------------------------------| 
D|-----------------------------------------------------|
A|-----------------------------------------------------|
E|-----------------------------------------------------|

That's it.. I really hope this could help. Any doubts, 
just ask on the youtube link:

http://br.youtube.com/watch?v=ljKhtWfZv-I

Victor Medeiros Coelho

12 comments on Under the Apple Tree

5\5 it was amazing and to i,

5

5\5 it was amazing and to i, who have always sucked at tabs. I fave'd this page for future references =DD cheers

nice! i liked it. Favorited!

5

nice! i liked it.
Favorited!

If someone can give me the

If someone can give me the strum pattern on Guitar Pro I'll love them :P

Here's a link to the GP

Bout 7 months late, but for future reference (NOTE-Not mine):

www.e-pix3l.com/KiraSensei-UTAT-FFCC.gp5

First time

5

This is the first song i actually masterd on the guitar, so thanks so mutch for the tab:)

Thanks MAttOE88

thank you very much for sharing my tab

you can watch my vidéo of this song here :

http://www.youtube.com/watch?v=8k7Eb79R1Zo

++

(wanakill is my old nickname ^^)

the new

Never done tabs?

"I never did tabs in my life so, this
one can be pretty messed." Whats up with that?

iLike

5

iLike

Hearing things?

4

e|-----------------------------------------------------|
B|---------------3-------------------------------------|
G|-----4s5-5--5-----5--4--0----------------------------|
D|-----------------------------------------------------|
A|-----------------------------------------------------|
E|-----------------------------------------------------|
Is it just me or does the chords for strumming change here in the mp3 file....
They change in several other places too, i don't know if it's just me or what

fantastic

you would make the composer himself proud

This cover is awesome :o but

This tab is awesome :o but could anyone teach me the pattern for the chords in the beginning? :c