Login or Register to remove this ad. | Advertise Here

Pokémon Johto (Pokémon) Guitar Tab

Submitted: Mar 12, 2011 by 60NCA10

5
Average: 5 (7 votes)
Download | Listen
Game: Pokémon
Composer(s): John Loeffler
Style: Arrangement, Fingerstyle
Series: Pokemon

This song is also called Opening Theme Season 3

Click here for a video example.

AutoScroll: Slow | Medium | Fast




                   POKÉMON: THE JOHTO JOURNEYS
                        "Opening Theme"


                  Original song by: PJ Lequerica

                  Fingerstyle Arrangement by:
                        Gonçalo Martins
                       October 11th 2007




Intro (play twice):

      E  S S E  E  E.  E.  E     E  S S E  E  E.  E.  E     
E||---------------------------|---------------------------||
B||--------0-2-----0---2---2--|-------0-2-----0-----------||
G||*-----2------2-------------|-----2------2------2---2--*||
D||*---------------0----------|---------------2----------*||
A||---0-----------------------|--0------------------------||
E||---------------------------|---------------------------||




Verse (play twice):

   E  S S E  S S E  E  E  E     E  S S E  S S E  E  E  E     
-----------------------------|-----------------------------||
------2-2-2--0---------0--2--|-----2-2-2--0----------------||
*--------------2-2--2--------|--------------2-2--2--------*||
*----------------0-----------|----------------2-----4--2--*||
---0-------------------------|--0--------------------------||
-----------------------------|-----------------------------||




Pre-Chorus:

  E  E  Q    E  E  Q       E  S S E  S S S S E  E  E     E  E  Q    E  E  Q     
-----0--2-------0--2----|-----------------------------|-----0--2-------0--2----|
------------------------|-----------------------0--2--|------------------------|
------------------------|-----2-2-2--2-2-2-2-2--------|------------------------|
-------------0----------|----------------2------------|-------------0----------|
--0---------------------|--0--------------------------|--0---------------------|
------------------------|-----------------------------|------------------------|


  E  E  E  E  E  S E.  E     H.           E  E   
-------------------0---2--|--L---------------0--|
--0--0--2--2--3--3--------|---------------2-----|
--------------------------|---------------------|
--------------0----2------|---------------------|
--2-----4-----------------|---------------------|
--------------------------|---------------------|




Chorus:

  Q    Q    Q    E  E     E  S S E  E  Q    E  E     Q    Q    Q    E  E   
--2----2----0-------0--|-----------------------0--|--2----2----0-------0--|
-----------------3-----|-------0-2-----0----2-----|-----------------3-----|
-----------------------|-----2------2-------------|-----------------------|
--0---------2----------|--------------------------|--0---------2----------|
-----------------------|--0-----------------------|-----------------------|
-----------------------|--------------------------|-----------------------|


  E  S S E  E  Q    E  E     Q    Q    Q    E  E     E  E  E  E  Q    E  E   
-----------------------0--|--2----2----0----0-----|--0-----0--2-------------|
-------0-2-----0----2-----|--------------------2--|-----2-------------------|
-----2------2-------------|-----------------------|--------------2----2-----|
--------------------------|--0---------2----------|--4-----------4-------4--|
--0-----------------------|-----------------------|-------------------------|
--------------------------|-----------------------|-------------------------|


  Q    E  E  Q    Q       Q    S S S E  S E  Q     
-----------------------|--------------------------|
-------------2----2----|--0----------2------------|
--2----2--2------------|----------------2-2--2----|
--0----------0---------|--2----L-2-2-2------------|
-----------------------|--------------------------|
-----------------------|--------------------------|




Ending:

  E  S S E  E  E.  E.  E     E  S S E  E  E.  E.  E     W                  
--------------------------|--------------------------|-------------------||
-------0-2-----0---2---2--|-------0-2-----0----------|-------------------||
-----2------2-------------|-----2------2------2---2--|-------------------||
---------------0----------|---------------2----------|-------------------||
--0-----------------------|--0-----------------------|--0----------------||
--------------------------|--------------------------|-------------------||




Duration Legend
---------------
W - whole
H - half
Q - quarter
E - 8th
S - 16th
. - note dotted


Tablature Legend
----------------
L - tied note

1 comment on Pokémon Johto

Guaranteed nostalgia trip

5

Guaranteed nostalgia trip every single time I play it, great work.