Login or Register to remove this ad. | Advertise Here

Lilycove City (Pokémon Ruby & Sapphire) Guitar Tab

Submitted: Nov 27, 2010 by A Dead Fly (Last updated: Nov 27, 2010)

5
Average: 5 (2 votes)
Download | Listen
Game: Pokémon Ruby & Sapphire
Composer(s): Junichi Masuda, Go Ichinose, Morikazu Aold
Style: Arrangement, Fingerstyle
Series: Pokemon

AutoScroll: Slow | Medium | Fast
Artist: Junichi Masuda, Go Ichinose, Morikazu Aold
Album: Pokemon Ruby, Sapphire, and Emerald
Song: Lilycove City
Tabbed By: A Dead Fly

Arranged for a solo acoustic guitar with standard tuning

e|----------2-----|----4-----4-----|----6-----6-----|----4-----4-----|
B|----4---4----4--|------4------4--|------4------4--|------4------4--|
G|------4---------|--------4-------|--------4-------|--------4-------| Play
D|----------------|----------------|----------------|----------------| Twice
A|--2-------------|----------------|-2--------------|----------------|
E|----------------|-2--------------|----------------|-2--------------|

e|----------4-----|----4-----4-----|----------3-----|----3-----3-----|
B|----4---4----4--|------4------4--|----4---4----4--|------4------4--|
G|------4---------|--------4-------|------4---------|--------4-------|
D|-2--------------|----------------|-2--------------|----------------|
A|----------------|-2--------------|----------------|-2--------------|
E|----------------|----------------|----------------|----------------|

e|-----------2----|----2-----2-----|-----------4----|----4-----4-----|
B|-----2---2---2--|------2------2--|-----4---4---4--|------4------4--|
G|-------3--------|--------3-------|-------5--------|--------5-------|
D|--1-------------|----------------|--6-------------|----------------|
A|----------------|-1--------------|----------------|-6--------------|
E|----------------|----------------|----------------|----------------|

e|----------4-----|----4-----4-----|----------3-----|----3-----3-----|
B|----4---4----4--|------4------4--|----4---4----4--|------4------4--|
G|------4---------|--------4-------|------4---------|--------4-------|
D|-2--------------|----------------|-2--------------|----------------|
A|----------------|-2--------------|----------------|-2--------------|
E|----------------|----------------|----------------|----------------|

e|-----------2----|----2-----2-----|-----6-----6----|----4-----4-----|
B|-----2---2---2--|------2------2--|-------4-----4--|------4------4--|
G|-------3--------|--------3-------|---------4------|-4------4-------|
D|--1-------------|----------------|----------------|----------------|
A|----------------|-1--------------|--2-------------|----------------|
E|----------------|----------------|----------------|----------------|

e|----2-----2-----|----6-----6-----|----8-----8-----|-11---9---8-----|
B|------4------4--|------7------7--|------7------7--|----9---9-------|
G|--------4-------|--------8-------|--------8-------|----------------|
D|----------------|----------------|-6--------------|----------------|
A|-2--------------|-6--------------|----------------|----------------|
E|----------------|----------------|----------------|----------------|

e|----4-----4-----|----4-----4-----|--------6-------|---------6------|
B|------6------6--|------6------6--|------7---7-----|-------7----7---|
G|--------6-------|--------6-------|----6--------6--|----6---------6-|
D|----------------|-6--------------|-4--------------|-4--------------|
A|-4--------------|----------------|----------------|----------------|
E|----------------|----------------|----------------|----------------|

e|----2-----2-----|----6-----6-----|----8-----8-----|----4-----4-----|
B|------4------4--|------7------7--|------7------7--|------5------5--|
G|--------4-------|--------8-------|--------8-------|--------4-------|
D|----------------|----------------|-6--------------|----------------|
A|-2--------------|-6--------------|----------------|-4--------------|
E|----------------|----------------|----------------|----------------|

e|----4-----4-----|----4-----4-----|--------6-------|---------6------|
B|------6------6--|------6------6--|------7---7-----|-------7----7---|
G|--------6-------|--------6-------|----6--------6--|----6---------6-|
D|----------------|-6--------------|-4--------------|-4--------------|
A|-4--------------|----------------|----------------|----------------|
E|----------------|----------------|----------------|----------------|

e|----------4-----|----9-----9-----|----------6-----|-11-----9-------|
B|----0---0----0--|------9------9--|----7--------7--|----7-----7-----|
G|------4---------|--------8-------|------8---------|------8------8--|
D|----------------|----------------|--------8-------|----------------|
A|----------------|----------------|-6--------------|----------------|
E|-0--------------|-0--------------|----------------|----------------|

e|----------4-----|----------------|-------------4--|----------------|
B|--------4----4--|-------------4--|----------4-----|-4--------------|
G|------4---------|-4--------4-----|--------4-------|----4-----------|
D|----6-----------|----6---6-------|------4---------|------4---------|
A|-7--------------|------7---------|----6-----------|--------6----6--|
E|----------------|----------------|-7--------------|----------7-----|

e|----------4-----|----9-----9-----|----------6-----|-11-----9-------|
B|----0---0----0--|------9------9--|----7--------7--|----7-----7-----|
G|------4---------|--------8-------|------8---------|------8------8--|
D|----------------|----------------|--------8-------|----------------|
A|----------------|----------------|-6--------------|----------------|
E|-0--------------|-0--------------|----------------|----------------|


e|-12-------------|-7--------------|-6--------------|----------------|
B|----12----------|----9-----------|----7-----------|----------------|
G|-------13-------|------9---------|------8---------|----------------|
D|---------14-----|--------9-------|--------8-------|----------------|
A|-----------14---|----------7-----|----------6-----|--------------0-|
E|-------------12-|-------------0--|-------------6--|-7-----0-2-4----|

Then repeat the whole thing over again!

Email me at azlizard13@yahoo.com

Please give me credit if you use this tab for a video

1 comment on Lilycove City

doesnt sound like the theme

doesnt sound like the theme at all O.o
http://www.youtube.com/watch?v=s2ut8s2hdSc