Login or Register to remove this ad. | Advertise Here

Team Rocket Hideout (Pokémon Red & Blue & Yellow) Bass/Guitar Tab

Submitted: May 30, 2009 by Baron Mobius (Last updated: Apr 05, 2010)

5
Average: 5 (1 vote)
Download | Listen
Game: Pokémon Red & Blue & Yellow
Composer(s): Junichi Masuda
Style: 2 or more instruments, Transcription
Series: Pokemon

AutoScroll: Slow | Medium | Fast
#----------------------------------PLEASE NOTE---------------------------------#
#This file is the author's own work and represents their interpretation of the #
#song. You may only use this file for private study, scholarship, or research. #
#------------------------------------------------------------------------------#

POKEMON(RED/BLUE) - TEAM ROCKET HIDEOUT

(Gameboy, 1996)

Transcribed by Baron Mobius
5-28-2009
	

Music by Junichi Masuda/Go Ichinose

Gtr I (E A D G B E) - 'Lead Guitar 1'
Gtr II (E A D G B E) - 'Lead Guitar 2'
Gtr III (E A D G) - 'Bass'

  Q=140
 4/4
  Gtr I
   H        H
|-16-------22-----------|
|-----------------------|
|-----------------------|
|-----------------------|
|-----------------------|
|-----------------------|
|
| Gtr II
|  H        Q S E     S
|-----------------------|
|--------------------12-|
|-----------------------|
|-----------------------|
|-----------------------|
|-----------------------|


   4/4
    Gtr I
     Q           Q           Q           Q
||--------------19----------18----------22-----------|
||o-17-----------------------------------------------|
||---------------------------------------------------|
||---------------------------------------------------|
||o--------------------------------------------------|
||---------------------------------------------------|
|
|   Gtr II
|    S  S  S  S  S  E     S  S  S  S  S  S  E     S
||---------------------------------------------------|
||o-------12-------------12-------12-------------12--|
||-----------15-12-13----------------15-12-13--------|
||--14-13-------------------14-13--------------------|
||o--------------------------------------------------|
||---------------------------------------------------|
|
|   Gtr III
|    E     S  E     S  S  S  E     S  E     S  S  S
||---------------------------------------------------|
||o--------9-10-------10--9--------9-10-------10--9--|
||o--7-----------------------7-----------------------|
||---------------------------------------------------|


 4/4
   Q           Q           Q           Q
|-21----------------------------------19------------|
|-------------20----------19------------------------|
|---------------------------------------------------|
|---------------------------------------------------|
|---------------------------------------------------|
|---------------------------------------------------|
|
|  S  S  S  S  S  E     S  S  S  S  S  S  E     S
|---------------------------------------------------|
|-------12-------------12-------12-------------12---|
|----------15-12-13----------------15-12-13---------|
|-14-13-------------------14-13---------------------|
|---------------------------------------------------|
|---------------------------------------------------|
|
|  E     S  E     S  S  S  E     S  E     S  S  S
|---------------------------------------------------|
|--------9-10-------10--9--------9-10-------10--9---|
|--7-----------------------7------------------------|
|---------------------------------------------------|


 4/4
   Q           Q           Q           Q
|-18----------------------------------17------------|
|-------------17----------16------------------------|
|---------------------------------------------------|
|---------------------------------------------------|
|---------------------------------------------------|
|---------------------------------------------------|
|
|  S  S  S  S  S  E     S  S  S  S  S  S  E     S
|---------------------------------------------------|
|-------12-------------12-------12-------------12---|
|----------15-12-13----------------15-12-13---------|
|-14-13-------------------14-13---------------------|
|---------------------------------------------------|
|---------------------------------------------------|
|
|  E     S  E     S  S  S  E     S  E     S  S  S
|---------------------------------------------------|
|--------9-10-------10--9--------9-10-------10--9---|
|--7-----------------------7------------------------|
|---------------------------------------------------|


 4/4
   Q           Q           Q           Q
|-16------------------------------------------------|
|-------------17----------19----------16------------|
|---------------------------------------------------|
|---------------------------------------------------|
|---------------------------------------------------|
|---------------------------------------------------|
|
|  S  S  S  S  S  E     S  S  S  S  S  S  S  S  S
|---------------------------------------------------|
|-------12-------------12-------12-------------12---|
|----------15-12-13----------------15-12-13-14------|
|-14-13-------------------14-13---------------------|
|---------------------------------------------------|
|---------------------------------------------------|
|
|  E     S  E     S  S  S  E     S  S  S  S  S  S
|---------------------------------------------------|
|--------9-10-------10--9---------------------------|
|--7-----------------------7----10--9--6--7--9--6---|
|---------------------------------------------------|


 4/4
  Gtr I
   Q           Q           Q           Q
|-------------19----------18----------22------------|
|-17------------------------------------------------|
|---------------------------------------------------|
|---------------------------------------------------|
|---------------------------------------------------|
|---------------------------------------------------|
|
| Gtr II
|  S  S  S  S  S  E     S  S  S  S  S  S  E     S
|---------------------------------------------------|
|-------12-------------12-------12-------------12---|
|----------15-12-13----------------15-12-13---------|
|-14-13-------------------14-13---------------------|
|---------------------------------------------------|
|---------------------------------------------------|
|
| Gtr III
|  E     S  E     S  S  S  E     S  E     S  S  S
|---------------------------------------------------|
|--------9-10-------10--9--------9-10-------10--9---|
|--7-----------------------7------------------------|
|---------------------------------------------------|


 4/4
   Q           Q           Q           Q
|-21----------------------------------19------------|
|-------------20----------19------------------------|
|---------------------------------------------------|
|---------------------------------------------------|
|---------------------------------------------------|
|---------------------------------------------------|
|
|  S  S  S  S  S  E     S  S  S  S  S  S  E     S
|---------------------------------------------------|
|-------12-------------12-------12-------------12---|
|----------15-12-13----------------15-12-13---------|
|-14-13-------------------14-13---------------------|
|---------------------------------------------------|
|---------------------------------------------------|
|
|  E     S  E     S  S  S  E     S  E     S  S  S
|---------------------------------------------------|
|--------9-10-------10--9--------9-10-------10--9---|
|--7-----------------------7------------------------|
|---------------------------------------------------|


 4/4
   Q           Q           Q           Q
|-18----------------------------------17------------|
|-------------17----------16------------------------|
|---------------------------------------------------|
|---------------------------------------------------|
|---------------------------------------------------|
|---------------------------------------------------|
|
|  S  S  S  S  S  E     S  S  S  S  S  S  E     S
|---------------------------------------------------|
|-------12-------------12-------12-------------12---|
|----------15-12-13----------------15-12-13---------|
|-14-13-------------------14-13---------------------|
|---------------------------------------------------|
|---------------------------------------------------|
|
|  E     S  E     S  S  S  E     S  E     S  S  S
|---------------------------------------------------|
|--------9-10-------10--9--------9-10-------10--9---|
|--7-----------------------7------------------------|
|---------------------------------------------------|


 4/4
   Q           Q           Q           Q
|-16------------------------------------------------|
|-------------17----------19----------16------------|
|---------------------------------------------------|
|---------------------------------------------------|
|---------------------------------------------------|
|---------------------------------------------------|
|
|  S  S  S  S  S  E     S  S  S  S  S  S  S  S  S
|---------------------------------------------------|
|-------12-------------12-------12-------------12---|
|----------15-12-13----------------15-12-13-14------|
|-14-13-------------------14-13---------------------|
|---------------------------------------------------|
|---------------------------------------------------|
|
|  E     S  E     S  S  S  E     S  S  S  S  S  S
|---------------------------------------------------|
|--------9-10-------10--9---------------------------|
|--7-----------------------7----10--9--6--7--9--6---|
|---------------------------------------------------|


   PM
   W                            S  S
|-12-------------------------|-24-24-------------------------|
|----------------------------|-------------------------------|
|----------------------------|-------------------------------|
|----------------------------|-------------------------------|
|----------------------------|-------------------------------|
|----------------------------|-------------------------------|
|
|  Q   E  E E  E  S  S  S  S    Q      E  E E  E  S  S  S  S
|----------------------------|-------------------------------|
|----------------------------|-------------------------------|
|----------------12-11----11-|-------------------14-12-11-14-|
|-14-----14---14-------14----|-14--------14---14-------------|
|----------------------------|-------------------------------|
|----------------------------|-------------------------------|
|
|  E E E  E E  E  S  S  S  S    E    E E  E E  E  S  S  S  S
|----9-----------------------|-------9-----------------------|
|----------------------------|-------------------------------|
|----------------10--9--7--6-|-------------------10--9--7--6-|
|---------0----0-------------|------------0----0-------------|


   S  S                                E   E   E   E   E  E   E  E
|-24-24-----------------------------|-----12------11------8------7---|
|-----------------------------------|--------------------------------|
|-----------------------------------|-12------11-------9------8------|
|-----------------------------------|--------------------------------|
|-----------------------------------|--------------------------------|
|-----------------------------------|--------------------------------|
|
|  Q       E   E  E   E  S  S  S  S    Q       Q       Q      Q
|-----------------------------------|--------------------------------|
|-----------------------------------|--------------------------------|
|-----------------------16-14-12-11-|-16------14------12-----11------|
|-14----------14-----14-------------|--------------------------------|
|-----------------------------------|--------------------------------|
|-----------------------------------|--------------------------------|
|
|  E    E  E   E  E   E  S  S  S  S    Q       Q       Q      Q
|-------9---------------------------|--------------------------------|
|-----------------------------------|--------------------------------|
|-----------------------10--9--7--6-|--7-------5-------3------2------|
|--------------0------0-------------|--------------------------------|


  E  S S S S S S S S S S S E   S   E  S S S S S S S S S S Q
|-0--1-0-3-0-5-0-6-0-7-0-8p7-----|-0--1-0-3-0-5-0-6-0-7-0-8--------|
|--------------------------------|---------------------------------|
|--------------------------------|---------------------------------|
|--------------------------------|---------------------------------|
|--------------------------------|---------------------------------|
|--------------------------------|---------------------------------|
|
| E  S S S S S S S S S S S S E     E  S S S S S S S S S S S S E
|--------------------------------|---------------------------------|
|-5--5-5-5-5-5-5-5-5-5-5-8-5-7---|-5--5-5-5-5-5-5-5-5-5-5-7-5-8----|
|--------------------------------|---------------------------------|
|--------------------------------|---------------------------------|
|--------------------------------|---------------------------------|
|--------------------------------|---------------------------------|
|
|                        PM--|
| H                    Q S S S S   H                    Q E   E
|--------------------------------|---------------------------------|
|--------------------------------|---------------------------------|
|--------------------------------|---------------------------------|
|-0----------------------0-0-0---|-0----------------------0---0----|


  E  S S S S S S S S S S S E   S    E   E   E   E   E  E   E  E
|-0--1-0-3-0-5-0-6-0-7-0-8h9-----|-----12------11------8------7----|
|--------------------------------|---------------------------------|
|--------------------------------|-12------11-------9------8-------|
|--------------------------------|---------------------------------|
|--------------------------------|---------------------------------|
|--------------------------------|---------------------------------|
|
| E  S S S S S S S S S S S S E      Q       Q       Q      Q
|----------------------------6---|---------------------------------|
|-5--5-5-5-5-5-5-5-5-5-5-8-5-----|---------------------------------|
|--------------------------------|-16------14------12-----11-------|
|--------------------------------|---------------------------------|
|--------------------------------|---------------------------------|
|--------------------------------|---------------------------------|
|
|                        PM--|
| H                    Q S S S S    Q       Q       Q      Q
|--------------------------------|---------------------------------|
|--------------------------------|---------------------------------|
|--------------------------------|--7-------5-------3------2-------|
|-0----------------------0-0-0-0-|---------------------------------|


   E  E   E  E   E  E   E  E
|-----8------7------3------2-|
|----------------------------|
|--9------8------5------3----|
|----------------------------|
|----------------------------|
|----------------------------|
|
|  Q      Q      Q      Q
|----------------------------|
|----------------------------|
|-12-----11------------------|
|---------------14-----13----|
|----------------------------|
|----------------------------|
|
|  Q      Q      Q      Q
|----------------------------|
|----------------------------|
|--3------2-------------6----|
|----------------3-----------|


    H                  H
|---------------------------------------|
|---------------------------------------|
|-(12)---------------(13)---------------|
|--14-----------------15----------------|
|---------------------------------------|
|---------------------------------------|
|
|   S  S S S S S S S   S  S S S S S S S
|---------------------------------------|
|---------------------------------------|
|---------------------------------------|
|---------------------------------------|
|---2--1---1-2-1---1---3--2---2-3-2---2-|
|--------4-------4----------5-------5---|
|
|   H                  H
|---------------------------------------|
|---------------------------------------|
|---7------------------8----------------|
|---------------------------------------|


    H                  H
|---------------------------------------|
|---------------------------------------|
|-(14)---------------(15)---------------|
|--16-----------------17----------------|
|---------------------------------------|
|---------------------------------------|
|
|   S  S S S S S S S   S  S S S S S S S
|---------------------------------------|
|---------------------------------------|
|---------------------------------------|
|---------------------------------------|
|---4--3---3-4-3---3---5--4---4-5-4---4-|
|--------6-------6----------6-------6---|
|
|   H                  H
|---------------------------------------|
|---------------------------------------|
|---9-----------------10----------------|
|---------------------------------------|


  W                          W
|--------------------------|-------------|
|--------------------------|-------------|
|--------------------------|-------------|
|--------------------------|-------------|
|--------------------------|-------------|
|--------------------------|-------------|
|
| W                          W
|--------------------------|-------------|
|--------------------------|-------------|
|--------------------------|-------------|
|--------------------------|-------------|
|--------------------------|-------------|
|--------------------------|-------------|
|
| S  S S Q Q E S        S    S  S S Q
|--------------------------|-------------|
|--------------------------|-------------|
|-7-10-7-6--------------7--|-7-10-7-6----|
|--------------------------|-------------|


  W                          W
|--------------------------|---------------------------|
|--------------------------|---------------------------|
|--------------------------|---------------------------|
|--------------------------|---------------------------|
|--------------------------|---------------------------|
|--------------------------|---------------------------|
|
| W                          W
|--------------------------|---------------------------|
|--------------------------|---------------------------|
|--------------------------|---------------------------|
|--------------------------|---------------------------|
|--------------------------|---------------------------|
|--------------------------|---------------------------|
|
| S  S S Q Q E S        S    S  S S Q Q E S        S S
|--------------------------|---------------------------|
|--------------------------|---------------------------|
|-7-10-7-6--------------7--|-7-10-7-6--------------5-6-|
|--------------------------|---------------------------|


  E   Q      E  Q       E  E     E   Q       E   Q    E   E
|-----------------------------|------------------------------|
|-----------------------------|-----------------13-------12--|
|--------------12-------------|-----14-----------------------|
|----14-------------------14--|-------------14---------------|
|-----------------------------|------------------------------|
|-----------------------------|------------------------------|
|
| W                              W
|-----------------------------|------------------------------|
|-----------------------------|------------------------------|
|-----------------------------|------------------------------|
|-----------------------------|------------------------------|
|-----------------------------|------------------------------|
|-----------------------------|------------------------------|
|
| Q      Q      Q     Q          Q       Q       Q    Q
|-----------------------------|------------------------------|
|--------9------8----12-------|-11--------------------9------|
|-7---------------------------|---------10-------9-----------|
|-----------------------------|------------------------------|


  E   Q      E  Q      E  E    E   Q      E  Q    E   E
|----------------------------|---------------------------|
|----------------------------|---------------------------|
|----12--------15--------11--|--------------11-----------|
|----------------------------|----14-----------------13--|
|----------------------------|---------------------------|
|----------------------------|---------------------------|
|
| W                            W
|----------------------------|---------------------------|
|----------------------------|---------------------------|
|----------------------------|---------------------------|
|----------------------------|---------------------------|
|----------------------------|---------------------------|
|----------------------------|---------------------------|
|
| Q      Q      Q    Q         Q      Q      Q    Q
|----------------------------|---------------------------|
|-8------------------7-------|-6-------------------------|
|--------7------6------------|--------7------9----6------|
|----------------------------|---------------------------|


   E  Q    E  Q   E  E    E  Q     E  Q   E  E
|----------------------|-----------------------|
|----------------------|-------------13-----12-|
|------------12--------|----14-----------------|
|----14-------------14-|----------14-----------|
|----------------------|-----------------------|
|----------------------|-----------------------|
|
|  E  Q    E  Q   E  E    E  E  Q     E Q    E
|----------------------|-----------------------|
|----------------------|-----------------------|
|----------------------|-----------------------|
|-----8------11------7-|--8----11-------7------|
|-10------10-----10----|----10-------10------9-|
|----------------------|-----------------------|
|
|  Q    Q     Q   Q       Q     Q     Q   Q
|----------------------|-----------------------|
|-------9-----8--12----|-11---------------9----|
|--7-------------------|-------10-----9--------|
|----------------------|-----------------------|


   E    Q      E  Q     E   E    E       Q       E  Q      E   E
|------------------------------|----------------------------------|
|------------------------------|----------------------------------|
|------12--------15--------11--|-------------------11-------------|
|------------------------------|--------14--------------------13--|
|------------------------------|----------------------------------|
|------------------------------|----------------------------------|
|
|  E    Q      E  Q     E   E    E   E   Q          E  E   E   E
|------------------------------|----------------------------------|
|------------------------------|----------------------------------|
|------------------------------|----------------------------------|
|-------8--------11---------7--|-8-------9------------------------|
|-10----------10-------10------|----10-------------10--9--10---6--|
|------------------------------|----------------------------------|
|
|  Q      Q       Q     Q        Q       Q          E  E   E   E
|------------------------------|----------------------------------|
|--8--------------------7------|-6--------------------------------|
|---------7-------6------------|---------7---------10--9--10---6--|
|------------------------------|----------------------------------|


  E    E    S S  S S  S S  S S S E   S   S S S S S S S S S S  S S Q
|----------12-0-11-0-10-0-10-9-8-7-----|-0-0-0-0-7-0-8-0-9-0-10-9-8-------|
|--------------------------------------|----------------------------------|
|--------------------------------------|----------------------------------|
|-----14-------------------------------|----------------------------------|
|--------------------------------------|----------------------------------|
|--------------------------------------|----------------------------------|
|
| E    S S  S S  S S  S S  S S S S S S   S S S S S S S S S S  S S S S E
|--------------------------------------|----------------------------------|
|------6-5--5-5--5-5--5-5--5-5-7-6-5-5-|-5-5-6-5-5-5-5-5-5-5--5-5-5-7-8---|
|--------------------------------------|----------------------------------|
|--------------------------------------|----------------------------------|
|-7------------------------------------|----------------------------------|
|--------------------------------------|----------------------------------|
|
| E E  H                       S S S S   E E H                    S S S S
|--------------------------------------|----------------------------------|
|--------------------------------------|----------------------------------|
|--------------------------------------|----------------------------------|
|-0----------------------------0-0-0-0-|-0------------------------0-0-0-0-|


  S S S S  S S  S S  S S S S Q         H         H
|-0-0-0-0-12-0-11-0-10-0-9-8-9-------|-7--------11-------------||
|------------------------------------|------------------------o||
|------------------------------------|-------------------------||
|------------------------------------|-------------------------||
|------------------------------------|------------------------o||
|------------------------------------|-------------------------||
|
| S S S S  S S  S S  S S S S S S S S   H         Q E S     S
|------------------------------------|-------------------------||
|-5-5-6-5--5-5--5-5--5-5-5-5-7-6-5-5-|-7------------------12--o||
|------------------------------------|-----------8-------------||
|------------------------------------|-------------------------||
|------------------------------------|------------------------o||
|------------------------------------|-------------------------||
|
| E E H                      S S S S   H         H
|------------------------------------|-------------------------||
|------------------------------------|------------------------o||
|------------------------------------|-2---------6------------o||
|-0--------------------------0-0-0-0-|-------------------------||



Duration Legend
---------------
W - whole; H - half; Q - quarter; E - 8th; S - 16th; T - 32nd; X - 64th; a - acciaccatura
+ - note tied to previous; . - note dotted; .. - note double dotted
Uncapitalized letters represent notes that are staccato (1/2 duration)
Irregular groupings are notated above the duration line
Duration letters will always appear directly above the note/fret number it represents the
duration for.  Duration letters with no fret number below them represent rests.  Multi-
bar rests are notated in the form Wxn, where n is the number of bars to rest for.  Low
melody durations appear below the staff

Tablature Legend
----------------
 h   - hammer-on
 p   - pull-off
 b   - bend
 pb  - pre-bend
 r   - bend release (if no number after the r, then release immediately)
 /\  - slide into or out of (from/to "nowhere")
 s   - legato slide
 S   - shift slide
 - natural harmonic
[n]  - artificial harmonic
n(n) - tapped harmonic
 ~   - vibrato
 tr  - trill
 T   - tap
 TP  - trem. picking
 PM  - palm muting
\n/  - tremolo bar dip; n = amount to dip
 \n  - tremolo bar down
 n/  - tremolo bar up
/n\  - tremolo bar inverted dip
 =   - hold bend; also acts as connecting device for hammers/pulls
 <> - volume swell (louder/softer)
 x   - on rhythm slash represents muted slash
 o   - on rhythm slash represents single note slash

Misc Legend
-----------
 |  - bar
||  - double bar
||o - repeat start
o|| - repeat end
*|  - double bar (ending)
 :  - bar (freetime)
 $  - Segno
 &  - Coda
Tempo markers -  = BPM(8/16=s8/s16), where s8 = swing 8ths, s16 = swing 16ths