Login or Register to remove this ad. | Advertise Here

Wild Pokémon Battle (Pokémon Red & Blue & Yellow) Bass/Guitar Tab

Submitted: Apr 25, 2011 by Johnny the pirate

3
Average: 3 (2 votes)
Download | Listen
Game: Pokémon Red & Blue & Yellow
Composer(s): Junichi Masuda
Style: 2 or more instruments, Tapping, Transcription
Series: Pokemon

AutoScroll: Slow | Medium | Fast
                              Wild Pokémon Battle                               


                                                                  Junichi Masuda


Guitar 1

              T           T           T           T   
     S  S  S  S  S  S  S  S  S  S  S  S  S  S  S  S   
E||--3p-2p-1-15p-3p-2p-1-15p-3p-2p-1-15p-3p-2p-1-15p-|
B||--------------------------------------------------|
G||--------------------------------------------------|
D||--------------------------------------------------|
A||--------------------------------------------------|
E||--------------------------------------------------|


           T           T           T           T                          
  S  S  S  S  S  S  S  S  S  S  S  S  S  S  S  S    Q    E  Q    E  Q     
--3p-2p-1-15p-3p-2p-1-15p-3p-2p-1-15p-3p-2p-1-15-|--3-------3-------3----|
-------------------------------------------------|-----------------------|
-------------------------------------------------|-----------------------|
-------------------------------------------------|-----------------------|
-------------------------------------------------|-----------------------|
-------------------------------------------------|-----------------------|


  H        Q    Q       Q.     Q    E  Q       Q.     Q.     Q     
---------------------|----------------------|---------------------|
-----------8---------|---------8-------8----|---------7------L----|
---------------------|----------------------|---------------------|
---------------------|----------------------|---------------------|
---------------------|----------------------|---------------------|
---------------------|----------------------|---------------------|


  Q    E  Q    E  Q       Q    Q     Q    Q       Q.      Q    E   Q     
-----------------------|-----------------------|------------------------|
--8-------8-------8----|-----------------------|------------------------|
-----------------------|------------12---------|---------12-------12----|
-----------------------|-----------------------|------------------------|
-----------------------|-----------------------|------------------------|
-----------------------|-----------------------|------------------------|


  Q.      Q    Q.         Q.      Q.      Q        Q.      Q.      Q     
----------------------|------------------------|------------------------|
----------------------|------------------------|------------------------|
---------12-----------|--12------11------------|--12------14------12----|
----------------------|------------------14----|------------------------|
----------------------|------------------------|------------------------|
----------------------|------------------------|------------------------|


     H.            E  E      E   E  E  E   H            Q.      Q.      Q     
|---16------------15-----|--16--15--------21--------|------------------------|
|------------------------|--------------------------|------------------------|
|*-----------------------|--------------------------|--17--------------------|
|*-----------------------|--------------------------|----------20------18----|
|------------------------|--------------------------|------------------------|
|------------------------|--------------------------|------------------------|


   Q.      Q.      Q        Q.      Q.      Q        Q     Q     Q     Q     
------------------------|------------------------|--------------------------|
------------------------|--18------17------------|--------------------18----|
--18------17------------|------------------19----|--------17----19----------|
------------------20----|------------------------|--20----------------------|
------------------------|------------------------|--------------------------|
------------------------|------------------------|--------------------------|


   W                    W                    W                 
--------------------|--------------------|--------------------|
--21----------------|---L----------------|--20----------------|
--------------------|--------------------|--------------------|
--------------------|--------------------|--------------------|
--------------------|--------------------|--------------------|
--------------------|--------------------|--------------------|


   W                    H         H            H         H         
--------------------|----------------------|----------------------|
---L----------------|----------------------|--15--------18--------|
--------------------|------------15--------|----------------------|
--------------------|--15------------------|----------------------|
--------------------|----------------------|----------------------|
--------------------|----------------------|----------------------|


   W                    W                    H         H         
--------------------|--------------------|----------------------|
--17----------------|---L----------------|----------------------|
--------------------|--------------------|------------15--------|
--------------------|--------------------|--15------------------|
--------------------|--------------------|----------------------|
--------------------|--------------------|----------------------|


   H         H            W                    W                 
----------------------|--15----------------|--20----------------|
--15--------18--------|--------------------|--------------------|
----------------------|--------------------|--------------------|
----------------------|--------------------|--------------------|
----------------------|--------------------|--------------------|
----------------------|--------------------|--------------------|


   H.            E  E      E   E  H.               H.            E  E   
-----------------------|-----------------------|-----------------------|
--17------------17-----|--18--17---------------|--18------------18-----|
-----------------------|-----------------------|-----------------------|
-----------------------|-----------------------|-----------------------|
-----------------------|-----------------------|-----------------------|
-----------------------|-----------------------|-----------------------|


   E   E  Q     H            Q.      Q.      Q        Q.      Q.      Q       
-------------------------|--15--------------------|--15------17------15-----||
--21--20-------18--------|----------19------17----|-------------------------||
-------------------------|------------------------|------------------------*||
-------------------------|------------------------|------------------------*||
-------------------------|------------------------|-------------------------||
-------------------------|------------------------|-------------------------||




Guitar 2


      S  S  S  S  S  S  S  S  S  S  S  S  S  S S S  
E||------------------------------------------------|
B||------------------------------------------------|
G||--17-16-15-14-15-14-13-12-13-12-11-10-11-10-9-8-|
D||------------------------------------------------|
A||------------------------------------------------|
E||------------------------------------------------|


  S S S S S S S S S S S S S S S S    E  Q    E  Q    E  E   
----------------------------------|--3---------------------|
----------------------------------|----------5-------4-----|
--9-8-7-6-7-6-5-4-5-4-3-2-1-2-3-4-|------------------------|
----------------------------------|------------------------|
----------------------------------|------------------------|
----------------------------------|------------------------|


  H        E  Q.        Q.     E  Q    E  E     Q.     Q.     Q     
---------------------|-----------------------|---------------------|
-----------2---------|---------5-------4-----|---------2------L----|
---------------------|-----------------------|---------------------|
---------------------|-----------------------|---------------------|
---------------------|-----------------------|---------------------|
---------------------|-----------------------|---------------------|


  E  Q    E  Q    E  E     H        E  Q.        Q.     E  Q    E  E   
--3---------------------|---------------------|-----------------------|
----------5-------4-----|-----------2---------|---------5-------4-----|
------------------------|---------------------|-----------------------|
------------------------|---------------------|-----------------------|
------------------------|---------------------|-----------------------|
------------------------|---------------------|-----------------------|


  Q.     E  Q    Q       S S S S S S S S S S S S S S S S  
----------------------|----------------------------------|
---------2------------|--2-3-2-1-2-3-2-1-2-3-4-3-2-1-0-1-|
----------------------|----------------------------------|
----------------------|----------------------------------|
----------------------|----------------------------------|
----------------------|----------------------------------|


  S S S S S S S S S S S S S S S S      S S S S S S S  S S S S S S S S S  
----------------------------------||------------------------------------|
--3-4-3-2-3-4-3-2-3-4-5-6-5-4-3-2-||---3-4-5-6-7-8-9-10-9-8-7-6-5-4-3-2-|
----------------------------------||*-----------------------------------|
----------------------------------||*-----------------------------------|
----------------------------------||------------------------------------|
----------------------------------||------------------------------------|


  S S S S S S S S S S S S S S S S    S S S S S S S S S S S S S S S S  
----------------------------------|----------------------------------|
--3-4-5-6-7-8-7-6-5-4-3-4-5-6-7-8-|--2-3-4-5-4-3-2-1-2-3-4-5-4-3-2-1-|
----------------------------------|----------------------------------|
----------------------------------|----------------------------------|
----------------------------------|----------------------------------|
----------------------------------|----------------------------------|


  S S S S S S S S S S S S S S S S    S S S S S S S S S S S S S S S S  
----------------------------------|----------------------------------|
--2-3-4-5-4-3-2-3-4-5-6-7-6-5-4-3-|--3-4-5-6-5-4-3-2-3-4-5-6-5-4-3-2-|
----------------------------------|----------------------------------|
----------------------------------|----------------------------------|
----------------------------------|----------------------------------|
----------------------------------|----------------------------------|


  S S S S S S S S S S S S S S S S    S S S S S S S S  S S S S S S S S  
----------------------------------|-----------------------------------|
--3-4-5-6-5-4-3-4-5-6-7-8-7-6-5-4-|--2-3-4-5-6-7-8-9-10-9-8-7-6-5-4-3-|
----------------------------------|-----------------------------------|
----------------------------------|-----------------------------------|
----------------------------------|-----------------------------------|
----------------------------------|-----------------------------------|


  S S S S S S S S  S S S S S S S S    S S S S S S S S  S S S S S S S S  
-----------------------------------|-----------------------------------|
--2-3-4-5-6-7-8-9-10-9-8-7-6-5-4-3-|--2-3-4-5-6-7-8-9-10-9-8-7-6-5-4-3-|
-----------------------------------|-----------------------------------|
-----------------------------------|-----------------------------------|
-----------------------------------|-----------------------------------|
-----------------------------------|-----------------------------------|


  S S S S S S S S S S S S S S S S    Q    Q    Q    Q       Q.     Q.     Q     
----------------------------------|----------------------|---------------------|
--2-3-4-5-6-7-6-5-4-3-2-3-4-5-6-7-|-----------------6----|--5-------------6----|
----------------------------------|--7----5----7---------|---------7-----------|
----------------------------------|----------------------|---------------------|
----------------------------------|----------------------|---------------------|
----------------------------------|----------------------|---------------------|


  W                   W                   Q    Q    Q    Q     
--5----------------|-------------------|----------------------|
-------------------|--8----------------|-----------------6----|
-------------------|-------------------|--7----5----7---------|
-------------------|-------------------|----------------------|
-------------------|-------------------|----------------------|
-------------------|-------------------|----------------------|


  Q.     Q.     Q       W                    W                 
---------5------7----|--8----------------|--15----------------|
--8------------------|-------------------|--------------------|
---------------------|-------------------|--------------------|
---------------------|-------------------|--------------------|
---------------------|-------------------|--------------------|
---------------------|-------------------|--------------------|


  H.           E  E     E  E  H.              H.           E  E   
---------------------|---------------------|---------------------|
--1------------1-----|--3--1---------------|--2------------2-----|
---------------------|---------------------|---------------------|
---------------------|---------------------|---------------------|
---------------------|---------------------|---------------------|
---------------------|---------------------|---------------------|


  E  E  E  E  H           S S S S S S S S S S S S S S S S  
-----------------------|----------------------------------|
--6--4--------2--------|--2-3-2-1-2-3-2-1-2-3-4-3-2-1-0-1-|
-----------------------|----------------------------------|
-----------------------|----------------------------------|
-----------------------|----------------------------------|
-----------------------|----------------------------------|


  S S S S S S S S S S S S S S S S    
-----------------------------------||
--3-4-3-2-3-4-3-2-3-4-5-6-5-4-3-2--||
----------------------------------*||
----------------------------------*||
-----------------------------------||
-----------------------------------||



                             
Guitar 3 (or bass)


     S S S S S S S S S S S S S S S S    S S S S S S S S S S S S E  E   
E||----------------------------------|--------------------------------|
B||----------------------------------|--------------------------------|
G||----------------------------------|--------------------------------|
D||--------------------------2---2---|--3---3---4---4---5---5---------|
A||--4---4-3-5---5-3-6---6-3-------3-|--------3-------3-------3-1--2--|
E||----------------------------------|--------------------------------|


  E  E  E  E  E  E  E  E     E  E  E  E  E  E  E  E   
--------------------------|--------------------------|
--------------------------|--------------------------|
--------------------------|--------------------------|
-----5-----5-----5-----5--|-----5-----5-----5-----5--|
--3-----3-----3-----3-----|--3-----3-----3-----3-----|
--------------------------|--------------------------|


  E  E  E  E  E  E  E  E     E  E  E  E  E  E  E  E   
--------------------------|--------------------------|
--------------------------|--------------------------|
-----------------3--------|-----------------3--------|
-----6--------6-----6--5--|-----6--------6-----6--3--|
--4-----4--4--------------|--4-----4--4--------------|
--------------------------|--------------------------|


  E  E  E  E  E  E  E  E     E  E  E  E  E  E  E  E   
--------------------------|--------------------------|
--------------------------|--------------------------|
--------------------------|--------------------------|
-----5-----5-----5-----5--|-----5-----5-----5-----5--|
--3-----3-----3-----3-----|--3-----3-----3-----3-----|
--------------------------|--------------------------|


  E  E  E  E  E  E  E  E     E  E  E  E  E  E  E  E   
--------------------------|--------------------------|
--------------------------|--------------------------|
-----------------3--------|-----------------3--------|
-----6--------6-----6--5--|-----6--------6-----6--3--|
--4-----4--4--------------|--4-----4--4--------------|
--------------------------|--------------------------|


  E  E  E  E  E  E  E  E     E  E  E  E  E  E  E  E       H.           E  E   
--------------------------|--------------------------||----------------------|
--------------------------|--------------------------||----------------------|
--------------------------|--------------------------||*---------------------|
-----5-----5-----5-----5--|-----5-----5-----5-----5--||*--6------------5-----|
--3-----3-----3-----3-----|--3-----3-----3-----3-----||----------------------|
--------------------------|--------------------------||----------------------|


  E  E  E  E  E  E  E  E     E  E  E  E  E  E  E  E   
--------------------------|--------------------------|
--------------------------|--------------------------|
--------------------------|--------------------------|
--6--5--------3--2--------|-----5-----5-----5-----5--|
--------------------5--4--|--3-----3-----3-----3-----|
--------------------------|--------------------------|


  E  E  E  E  E  E  E  E     E  E  E  E  E  E  E  E   
--------------------------|--------------------------|
--------------------------|--------------------------|
--------------------------|--------------------------|
-----5-----5-----5-----5--|-----5-----5-----5-----5--|
--3-----3-----3-----3-----|--3-----3-----3-----3-----|
--------------------------|--------------------------|


  E  E  E  E  E  E  E  E     E  E  E  E  E  E  E  E   
--------------------------|--------------------------|
--------------------------|--------------------------|
--------------------------|--------------------------|
-----5-----5-----5-----5--|-----6-----6-----6-----6--|
--3-----3-----3-----3-----|--4-----4-----4-----4-----|
--------------------------|--------------------------|


  E  E  E  E  E  E  E  E     E  E  E  E  E  E  E  E   
--------------------------|--------------------------|
--------------------------|--------------------------|
--------------------------|--------------------------|
-----6-----6-----6-----6--|-----5-----5-----5-----5--|
--4-----4-----4-----4-----|--3-----3-----3-----3-----|
--------------------------|--------------------------|


  E  E  E  E  E  E  E  E     E  E  E  E  E  E  E  E   
--------------------------|--------------------------|
--------------------------|--------------------------|
--------------------------|--------------------------|
-----5-----5-----5-----5--|-----3-----3-----3-----3--|
--3-----3-----3-----3-----|--1-----1-----1-----1-----|
--------------------------|--------------------------|


  E  E  E  E  E  E  E  E     E  E  E  E  E  E  E  E   
--------------------------|--------------------------|
--------------------------|--------------------------|
--------------------------|--------------------------|
-----3-----3-----3-----3--|-----5-----5-----5-----5--|
--1-----1-----1-----1-----|--3-----3-----3-----3-----|
--------------------------|--------------------------|


  E  E  E  E  E  E  E  E     E  E  E  E  E  E  E  E   
--------------------------|--------------------------|
--------------------------|--------------------------|
--------------------------|--------------------------|
-----5-----5-----5-----5--|-----3-----3-----3-----3--|
--3-----3-----3-----3-----|--3-----3-----3-----3-----|
--------------------------|--------------------------|


  E  E  E  E  E  E  E  E     E  E  E  E  E  E  E  E   
--------------------------|--------------------------|
--------------------------|--------------------------|
--------------------------|--------------------------|
-----3-----3-----3-----3--|-----5-----5-----5-----5--|
--3-----3-----3-----3-----|--3-----3-----3-----3-----|
--------------------------|--------------------------|


  E  E  E  E  E  E  E  E     E  E  E  E  E  E  E  E   
--------------------------|--------------------------|
--------------------------|--------------------------|
--------------------------|--------------------------|
-----5-----5-----5-----5--|-----5-----5-----5-----5--|
--3-----3-----3-----3-----|--3-----3-----3-----3-----|
--------------------------|--------------------------|


  E  E  E  E  E  E  E  E     E  E  E  E  E  E  E  E   
--------------------------|--------------------------|
--------------------------|--------------------------|
--------------------------|--------------------------|
-----5-----5-----5-----5--|-----6-----6-----6-----6--|
--3-----3-----3-----3-----|--4-----4-----4-----4-----|
--------------------------|--------------------------|


  E  E  E  E  E  E  E  E     E  E  E  E  E  E  E  E   
--------------------------|--------------------------|
--------------------------|--------------------------|
--------------------------|--------------------------|
-----6-----6-----6-----6--|-----5-----5-----5-----5--|
--4-----4-----4-----4-----|--3-----3-----3-----3-----|
--------------------------|--------------------------|


  E  E  E  E  E  E  E  E     
---------------------------||
---------------------------||
--------------------------*||
-----5-----5-----5-----5--*||
--3-----3-----3-----3------||
---------------------------||




Duration Legend
---------------
W - whole
H - half
Q - quarter
E - 8th
S - 16th
T - 32nd
X - 64th
. - note dotted
|-n-|  - n-tuplets


Tablature Legend
----------------
L - tied note
x - dead note
g - grace note
(n) - ghost note
> - accentuded note
NH - natural harmonic
AH - artificial harmonic
TH - tapped harmonic
SH - semi harmonic
PH - pitch harmonic
h - hammer on
p - pull off
b - bend
br - bendRelease
pb - preBend
pbr - preBendRelease
brb - bendReleaseBend
\n/ - tremolo bar dip
\n - tremolo bar dive
-/n - tremolo bar Release up
/n\ - tremolo bar inverted dip
/n - tremolo bar return
-\n - tremolo bar Release down
S - shift slide
s - legato slide
/ -  slide into from below or out of upwards
\ -  slide into from above or out of downwards
~ - vibrato
W - wide vibrato
tr - trill
TP - tremolo picking
T - tapping
S - slap
P - pop
< - fade in
^ - brush up
v - brush down

1 comment on Wild Pokémon Battle

nice tab

nice tab