Login or Register to remove this ad. | Advertise Here

Viridian City (Pokémon Red & Blue & Yellow) Guitar Tab

Submitted: Sep 12, 2011 by saurbulbasaur (Last updated: Sep 12, 2011)

4
Average: 4 (2 votes)
Download | Listen
Game: Pokémon Red & Blue & Yellow
Composer(s): Junichi Masuda
Style: 2 or more instruments, Transcription
Series: Pokemon

This song is also called Pewter CIty, Saffron City

AutoScroll: Slow | Medium | Fast
Game: Pokémon r/b/y/fr/lg
Song: Pewter city theme
Written/composed by: Junichi Masuda
Tabbed out by: Me! (saurbulbasaur)
Written in standard tuning

E                     F#m    B7                          E
|-7--5--4--5--7--7--5--4----|-5--4--------4--5--5--4-----4----|
|-------------------------7-|-------7--7--------------7-----5-|
|---------------------------|---------------------------------|  This whole section is
|---------------------------|---------------------------------|  repeated twice
|---------------------------|---------------------------------|
|---------------------------|---------------------------------|

A                        E             B7                   E
|-9------12--14--12--11--9--7--4--7--|-2--4--5--7--5--4--2--4-----7--| 
|----10------------------------------|-------------------------5-----| 
|------------------------------------|-------------------------------| 
|------------------------------------|-------------------------------| 
|------------------------------------|-------------------------------| 
|------------------------------------|-------------------------------|

A                           E                      B7                  F#m    E
|-9--11--12--14--12--11--9--7-|-9--11--9--7--5--4--5-|-7—8--8--7--5--2--5--8--7-| 
|-----------------------------|----------------------|--------------------------| 
|-----------------------------|----------------------|--------------------------| 
|-----------------------------|----------------------|--------------------------| 
|-----------------------------|----------------------|--------------------------| 
|-----------------------------|----------------------|--------------------------|
|-----------------------------|----------------------|--------------------------| 

 The chords used
 E   F#m  A  B7 (if B7 is the inccorect name for this chord please correct me, thanks.)
|-0---2---0--2--------------------------------------------------------------------------| 
|-0---2---2--4--------------------------------------------------------------------------| 
|-1---2---2--2--------------------------------------------------------------------------| 
|-2---4---2--4--------------------------------------------------------------------------|
|-2---4---0--2--------------------------------------------------------------------------| 
|-0---2---------------------------------------------------------------------------------| 

Feel free to correct any mistakes or things I’ve forgotten to include. Enjoy!

5 comments on Viridian City

Missing Note

I've listened carefully to the music and it seems that you missed a note at the start of the music (one on the 4th fret of the e string). Look below for the corrected tab. Even so, the tab is excellent and I thank you for that!
|-7--5--4--4--5--7--7--5--4----|
|----------------------------------7-|
|------------------------------------|
|------------------------------------|
|------------------------------------|
|------------------------------------|
...

Thank you

Thank you

Another missing note

I've listened agian and agian and found another missing note:
|-7--5--4--4--5--7--7--5--4--5-------|
|---------------------------------------7|
|------------------------------------|
|------------------------------------|
|------------------------------------|
|------------------------------------|

Ahah, wow. I've played this

Ahah, wow. I've played this music a million times with the tab you gave but I only noticed now that that same tab is different from the one I gave in my comment.

Whoops, I had to re-read the

Whoops, I had to re-read the tab about 3 times to notice what I'd missed out, thanks for catching it.