Login or Register to remove this ad. | Advertise Here

Surf's Theme (Pokémon Red & Blue & Yellow) Guitar Tab

Submitted: Apr 17, 2011 by Max_depa (Last updated: Apr 18, 2011)

5
Average: 5 (3 votes)
Download | Listen
Game: Pokémon Red & Blue & Yellow
Composer(s): Junichi Masuda
Style: Arrangement, Fingerstyle
Series: Pokemon

AutoScroll: Slow | Medium | Fast
Surf's Theme - Pokemon Red & Blue & Yellow
Arranged by: Max_depa

Capo: 2-4

This time I was really undecided about where to put the capo, so I made two versions: one with a capo on the second, one on the fourth. 
I prefer the first, but in the second there are more chords that make it easier in my opinion.


(Capo 2)
     |--3--|            |--3--|       |--3--|  |--3--|  |--3--|  |--3--|   
     E  E  E  Q    Q    E  E  E       E  E  E  E  E  E  E  E  E  E  E  E   
E||------------------------------||---------------------------------------|
B||----------------3----3--1-----||---3--------0-----3--1-----------------|
G||--0------------------------2--||*-----0--0-----0--------------2--------|
D||-----4--2--0----4----0--2--4--||*-----------0-----------4--4--0--4--4--|
A||------------------------------||---------------------0-----------------|
E||------------------------------||---3-----------------------------------|


  |--3--|  |--3--|  |--3--|  |--3--|     |--3--|  |--3--|  |--3--|  |--3--|   
  E  E  E  E  E  E  E  E  E  E  E  E     E  E  E  E  E  E  E  E  E  E  E  E   
--------------0-----------------------|--------------------0-----------------|
--1--------------1--3--------0--------|--3--------0-----3-----------1--------|
-----------2-----------0--0-----0--0--|-----0--0-----0-----------------------|
-----4--4--0--4--0-----------0--------|-----------0-----------4--4--0--4--4--|
--0-----------------2-----------------|--------------------0-----------------|
--------------------------------------|--3-----------------------------------|


  |--3--|  |--3--|  |--3--|  |--3--|     |--3--|  |--3--|  |--3--|  |--3--|   
  E  E  E  E  E  E  E  E  E  E  E  E     E  E  E  E  E  E  E  E  E  E  E  E   
--0-----------0-----3--------3--------|--5--3-----0-----------0--------------|
-----------3-----3--------------------|--------1-----------3-----3--0--------|
-----------------------0--0-----0--0--|-----------------------0--------0--0--|
-----4--4--0--4--0-----------0--------|-----2--------2--2--0-----------------|
--0-----------------2-----------------|--3--------------------------2--------|
--------------------------------------|-----------3--------------------------|


  |--3--|  |--3--|  |--3--|  |--3--|     |--3--|  |--3--|  |--3--|  |--3--|   
  E  E  E  E  E  E  E  E  E  E  E  E     E  E  E  E  E  E  E  E  E  E  E  E   
-----------0-----------------3--------|--5--3-----0-----------0--2--3--------|
--1--0--------------3--2--3-----------|--------1-----------3-----------------|
--------2--------------0--------0--0--|-----------------------0--------0--0--|
--0--4--4-----4--4--0-----------------|-----2--------2--2--0-----------------|
-----------0--------------------------|--3--------------------------2--------|
-----------------------------3--------|-----------3--------------------------|


  |--3--|  |--3--|  |--3--|  |--3--|                          
  E  E  E  E  E  E  E  E  E  E  E  E       W                  
--2--0-----2-----------------7---------||--3----------------||
--------3-----------8--7--8------------||--3----------------||
-----------------------0--------------*||--0----------------||
--0--4--------4--4--0--------------0--*||--0----------------||
-----------0---------------------------||--2----------------||
-----------------------------7--8------||--3----------------||



(Capo 4)
     |--3--|            |--3--|       |--3--|  |--3--|  |--3--|  |--3--|   
     E  E  E  Q    Q    E  E  E       E  E  E  E  E  E  E  E  E  E  E  E   
E||------------------------------||---------------------------------------|
B||----------------1----1--------||---1--------------1--------------------|
G||------------------------3--0--||*-----------2--------3--------0--------|
D||--3--2--0-------2-------0--2--||*-----3--3-----3--------2--2-----2--2--|
A||-----------3---------3--------||------------3-----------------3--------|
E||------------------------------||---1-----------------3-----------------|


  |--3--|  |--3--|  |--3--|  |--3--|     |--3--|  |--3--|  |--3--|  |--3--|   
  E  E  E  E  E  E  E  E  E  E  E  E     E  E  E  E  E  E  E  E  E  E  E  E   
--------------------------------------|--------------------------------------|
--------------3-----1-----------------|--1--------------1--3-----------------|
--3--------0-----3-----------2--------|-----------2-----------------3--------|
-----2--2-----2--------3--3-----3--3--|-----3--3-----3--------2--2-----2--2--|
-----------3-----3--0--------3--------|-----------3-----------------3--------|
--3-----------------------------------|--1-----------------3-----------------|


  |--3--|  |--3--|  |--3--|  |--3--|     |--3--|  |--3--|  |--3--|  |--3--|   
  E  E  E  E  E  E  E  E  E  E  E  E     E  E  E  E  E  E  E  E  E  E  E  E   
--------------------1--------1--------|--3--1--------------------------------|
--3--------1--3--1--------------------|-----------3--------1--3--1-----------|
--------------------------------------|--------3--------------------2--------|
-----2--2-----2--------3--3-----3--3--|-----0--------0--0-----3--------3--3--|
-----------3-----3--0--------3--------|--1-----------------3--------0--------|
--3-----------------------------------|-----------1--------------------------|


  |--3--|  |--3--|  |--3--|  |--3--|     |--3--|  |--3--|  |--3--|  |--3--|   
  E  E  E  E  E  E  E  E  E  E  E  E     E  E  E  E  E  E  E  E  E  E  E  E   
-----------------------------1--------|--3--1--------------------0--1--------|
-----------3--------1--0--1-----------|-----------3--------1--3--------------|
--3--2--0-----------------------------|--------3-----------------------------|
-----2--2-----2--2-----3--------3--3--|-----0--------0--0-----3--------3--3--|
--3-----------------3-----------------|--1-----------------3--------0--------|
-----------3-----------------1--------|-----------1--------------------------|


  |--3--|  |--3--|  |--3--|  |--3--|                          
  E  E  E  E  E  E  E  E  E  E  E  E       W                  
--0--------0--------1--0--1--5---------||--1----------------||
-----3--1------------------------------||--1----------------||
--------------------------------------*||-------------------||
-----2--------2--2-----3--------------*||--3----------------||
--3-----------------3--------0--1--3---||--3----------------||
-----------3---------------------------||--1----------------||




Duration Legend
---------------
W - whole
H - half
Q - quarter
E - 8th
S - 16th
T - 32nd
X - 64th
. - note dotted
|-n-|  - n-tuplets


Tablature Legend
----------------
L - tied note
x - dead note
g - grace note
(n) - ghost note
> - accentuded note
NH - natural harmonic
AH - artificial harmonic
TH - tapped harmonic
SH - semi harmonic
PH - pitch harmonic
h - hammer on
p - pull off
b - bend
br - bendRelease
pb - preBend
pbr - preBendRelease
brb - bendReleaseBend
\n/ - tremolo bar dip
\n - tremolo bar dive
-/n - tremolo bar Release up
/n\ - tremolo bar inverted dip
/n - tremolo bar return
-\n - tremolo bar Release down
S - shift slide
s - legato slide
/ -  slide into from below or out of upwards
\ -  slide into from above or out of downwards
~ - vibrato
W - wide vibrato
tr - trill
TP - tremolo picking
T - tapping
S - slap
P - pop
< - fade in
^ - brush up
v - brush down

3 comments on Surf's Theme

This feels so smooth to play.

5

This feels so smooth to play. Really, really nice. Excelent bass line! Thank you for sharing and congratulations for the good work!

thanks man :DD

thanks man :DD

I really love the first

5

I really love the first version! Thank you for tabbing this out :D