Login or Register to remove this ad. | Advertise Here

S. S. Anne (Pokémon Red & Blue & Yellow) Guitar Tab

Submitted: May 31, 2010 by laoise

5
Average: 5 (2 votes)
Download | Listen
Game: Pokémon Red & Blue & Yellow
Composer(s): Junichi Masuda
Style: Arrangement, Fingerstyle
Series: Pokemon

AutoScroll: Slow | Medium | Fast
S.S. Anne - Pokemon Red & Blue
Arranged By Laoise Earle 


                             |--3--|                                           
     E  E  Q    Q    Q       E  E  E  E  E  Q    Q       E  E  Q    Q    Q     
E||-----------------------|---------------------------|-----------------------|
B||-------------0----3----|--2--3--2--0-----0---------|-----0--2----3---------|
G||--2-----2--------------|--------------2-------1----|--2---------------2----|
D||-----2------------2----|--2--------0----------2----|--2-----4----4---------|
A||-----------------------|-----------------4----2----|-------------2----4----|
E||-----------------------|---------------------------|-----------------------|


                                                   |--3--|                   
  Q    E  E  Q    E  E     E  E  Q    Q    Q       E  E  E  E  E  Q    Q     
--0---------------------|-----------------------|---------------------------|
-------3--2--0----2--0--|-------------0----3----|--2--3--2--0-----0---------|
--1---------------1-----|--2-----2--------------|--------------2-------1----|
-------------2----------|-----2-------4---------|--2--------0----------2----|
------------------------|--0-----4---------5----|-----------------4---------|
------------------------|-----------------------|---------------------------|


  E  E  Q    Q    Q            Q    E  E  E  E     E  E  E  E  Q    Q     
-----------------------|-------0----------------|------------------------|
-----0--2----3---------|------------3--2--0-----|--------------0----3----|
--2---------------2----|-------1----------------|--2-----2---------------|
--2-----4----4---------|------------4-----2--4--|-----2-----2--4---------|
-------------2----4----|------------------------|--0-----4----------5----|
-----------------------|------------------------|------------------------|


  |--3--|                                                                     
  E  E  E  E  E  E  E  Q       E  E  Q    Q    Q            Q    E  E  E  E   
----------------------------|-----------------------|-------0----------------|
--2--3--2--0-----0----------|-----0--2----3---------|------------3--2--0-----|
--------------2--------1----|--2---------------2----|-------1----------------|
--2--------0--------0--2----|--2-----4----4---------|------------4-----2--4--|
-----------------4----------|-------------2----4----|------------------------|
----------------------------|-----------------------|------------------------|


  E  E  E  E  E  E  E  E     E  E  E  E  E  E  E  E   
--------------------------|--0-----------------------|
-----2--0--2--2--3--2--3--|-----0-----------------0--|
--------------------------|--------1-----------1-----|
--------------------4--2--|-----------4--2--4--------|
--4-----------4-----------|--2-----------2-----4-----|
--------------------------|--------------------------|


  E  E  E  E  E  E  E  E     E  E  E  E  E  E  E  E   
--------------------------|--------------------------|
-----------------0-----0--|--2--------------------0--|
-----2--1--2--2-----2-----|-----1--------------1-----|
--------------------0-----|--------4--2--2--4--0-----|
--0-----------0--------4--|-----------------------2--|
--------------------------|--4-----0-----4-----------|


  E  E  E  E  E  E  E  E     E  E  E  E  E  E  E  E   
--------------------------|--------------------------|
--------------------------|--------------------------|
-----------------1-----1--|--2-----------------------|
-----4--2--4--4-----4-----|-----2-----------------2--|
--0-----------0-----2--0--|--------3--2--0--2--3-----|
--------------------------|--0-----------------4-----|


  E  E  E  E  E  E  E  E     E  E  E  E  E  E  E  E    
--------------------------|--------------0-----------||
-----------------------0--|--2--3--2--0-----3--2--0--||
-----------------1--2-----|--------------4-----------||
-----4--2--4--4-----------|--4-----------------------||
--0-----------0-----2-----|--------------------------||
--------------------------|--------------------------||




Duration Legend
---------------
W - whole
H - half
Q - quarter
E - 8th
S - 16th
T - 32nd
X - 64th
. - note dotted
|-n-|  - n-tuplets

3 comments on S. S. Anne

No comment? Good work man

No comment?
Good work man

Thanks ^^

Thanks ^^

Thanks

Hey man great job with this tab. I believe however that there is a mistake in the third to last bar. Shouldn't it go to a C# instead of a C? (4--2--0--2--4 instead of 3--2--0--2--3)

Thank you for the tab. This is my favorite song from Red/Blue :D.