Login or Register to remove this ad. | Advertise Here

Route 1 (Pokémon Red & Blue & Yellow) Guitar Tab

Submitted: Dec 17, 2010 by Felipe Gago (Last updated: Dec 20, 2010)

4.5
Average: 4.5 (2 votes)
Download | Listen
Game: Pokémon Red & Blue & Yellow
Composer(s): Junichi Masuda
Style: Alternate picking, Transcription
Series: Pokemon

AutoScroll: Slow | Medium | Fast
Route 1 Theme :D

E|-----------------------------------------------------------------------------|
B|---5-7-7-7---5-7-7-7---5-7-7-8-7-5------5-5-5-----5-5-5-----5-5-7-5-5-7----7-|
G|-7---------7---------7--------------6-7-------6-7-------6-7-------------7----|
D|-----------------------------------------------------------------------------|
A|-----------------------------------------------------------------------------|
E|-----------------------------------------------------------------------------|

E|--------------------------------------------------------7-------------|
B|---5-7-7-7---5-7-7-7---5-7-7-8-7-5--------8-7-------------------------|
G|-7---------7---------7--------------6-7-9-----9-7-6---6---4h6p4---6-7-|
D|----------------------------------------------------9-----------7-----|
A|----------------------------------------------------------------------|
E|----------------------------------------------------------------------|

E|----------------------------------------------|
B|-------------------15-14-12-14----------------|
G|-11-12-14-14-11----------------14-11----11----|
D|----------------12-------------------12----14-|
A|----------------------------------------------|
E|----------------------------------------------|

E|----------------------------------------12----|
B|-------------------15-14-12-------15-14----15-|
G|-11-12-14-14-11-14----------12-14-------------|
D|----------------------------------------------|
A|----------------------------------------------|
E|----------------------------------------------|

Enjoy ! ;D