Login or Register to remove this ad. | Advertise Here

Route 1 (Pokémon Red & Blue & Yellow) Guitar Tab

Submitted: Jan 27, 2010 by Codykins (Last updated: Dec 20, 2010)

3.666665
Average: 3.7 (3 votes)
Download | Listen
Game: Pokémon Red & Blue & Yellow
Composer(s): Junichi Masuda
Style: Transcription
Series: Pokemon

AutoScroll: Slow | Medium | Fast
Route 1 Music
Pokemon Red/Blue
Tabbed by Codykins

e------------------------------------------------------------------------
B------------------------------------------------------------------------
G------------------------------------------------------------------------
D--0-2-4--4--4--0-2-4-4-4--0-2-4-4-5---4-2-------------------------------
A------------------------------------------------------------------------
E------------------------------------------------------------------------

e------------------------------------------------------------------------
B------------------------------------------------------------------------
G------------------------------------------------------------------------
D----0-2--2--2-----0-2--2--2-----0-2--2--4-2-2-4-0---4-------------------
A--4-------------4-------------4-----------------------------------------
E------------------------------------------------------------------------

e------------------------------------------------------------------------
B------------------------------------------------------------------------
G------------------------------------------------------------------------
D--0-2-4--4--4--0-2-4-4-4--0-2-4-4-5---4-2-------------------------------
A------------------------------------------------------------------------
E------------------------------------------------------------------------

e------------------------------------------------------------------------
B------------------------------------------------------------------------
G------------------------------4-----------------------------------------
D----0-2--5--4--2--0----------------------------0------------------------
A--4------------------4--2--4------2h4p2p0---4---------------------------
E------------------------------------------------------------------------
							   
e------------------------------------------------------------------------
B--------------3-2-0-2-----------------------------3-2-0------3-2-5-3----
G----0-2-2-------------2-----------------0-2-2---2--------0-2------------
D--4-------4-0-----------4-0--4-2-----4--------4-------------------------
A------------------------------------------------------------------------
E------------------------------------------------------------------------

1 comment on Route 1

I substituted that

3

I substituted that 0-2--2--4-2-2-4-0---4-- section for

D----0-2--2--2-----0-2--2--2-----0--2--2--2--4--2--0----4----------------
A--4-------------4-------------4-----------------------------------------
E------------------------------------------------------------------------

And it seems to bit much better