Login or Register to remove this ad. | Advertise Here

Route 1 (Pokémon Red & Blue & Yellow) Guitar Tab

Submitted: Nov 09, 2009 by GuitarGuy

5
Average: 5 (3 votes)
Download | Listen
Game: Pokémon Red & Blue & Yellow
Composer(s): Junichi Masuda
Style: Arrangement, Fingerstyle
Series: Pokemon

AutoScroll: Slow | Medium | Fast
Gtr I (E A D G B E) - Route 1
Tabbed by: Romyl Lopez "GuitarGuy"

   4/4
    Gtr I
    S S E E E S S E E E   S S E E E. S E E E   S S E E E S S E E E
||------0-0-0-----0-0-0-|-----0-0-1--0-------|----------------------|
||o-1-3-1-1-1-1-3-1-1-1-|-1-3-1-1------3-----|-0-1-3-3-3-0-1-3-3-3--|
||----------------------|--------------0---0-|-----0-0-0-----0-0-0--|
||----------------------|----------------0---|----------------------|
||o-----3---------3-----|-----3--------------|----------------------|
||----------------------|--------------3-----|-----3---------3------|


   S S E E E S S E E E   S S E E E S S E E E   S S E E E. S E E E
||---------0---0-------|-----0-0-0-----0-0-0-|-----0-0-1--0-------|--|
||-0-1-3-3---3---1-----|-1-3-1-1-1-1-3-1-1-1-|-1-3-1-1------3-----|--|
||-----0-0-------0---0-|---------------------|--------------0---0-|--|
||-----------------2---|---------------------|----------------0---|--|
||---------------3-----|-----3---------3-----|-----3--------------|--|
||-----3---------------|---------------------|--------------3-----|--|


   S S E E E E E E E   E Q E. S S E E E   S S E E E E E E  E   E E E E.
||-------1-0---------|---5--------------|-0-1-3-3-0-3-8-7----|-8-3-0----|
||-0-1-3-----3-1-0---|-1---1--0-1-1-----|-----1-1---------10-|-------1--|
||-----0-------2---2-|---5--------0---0-|--------------------|----------|
||-------------------|---3----------2---|--------------------|----------|
||-------------0-----|------------3-----|-----3-------8------|---3------|
||-----3-------------|------------------|--------------------|----------|


   S E E E   S S E E E E E E  E   E  E E E S S E.
||-0-------|-0-1-3-3-0-3-8-7----|-8----8-7-7-8-8---||----|
||---3-----|-----1-1---------10-|----8------------o||----|
||-------0-|--------------------|------------------||----|
||-----0---|--------------------|------------------||----|
||---------|-----3-------8------|---10------------o||----|
||---3-----|--------------------|--------------8---||----|




--------------------------------------------------------------------------------


Duration Legend
---------------
W - whole; H - half; Q - quarter; E - 8th; S - 16th; T - 32nd; X - 64th; a - acciaccatura
+ - note tied to previous; . - note dotted; .. - note double dotted
Uncapitalized letters represent notes that are staccato (1/2 duration)
Irregular groupings are notated above the duration line
Duration letters will always appear directly above the note/fret number it represents the
duration for.  Duration letters with no fret number below them represent rests.  Multi-
bar rests are notated in the form Wxn, where n is the number of bars to rest for.  Low
melody durations appear below the staff

Tablature Legend
----------------
 h   - hammer-on
 p   - pull-off
 b   - bend
 pb  - pre-bend
 r   - bend release (if no number after the r, then release immediately)
 /\  - slide into or out of (from/to "nowhere")
 s   - legato slide
 S   - shift slide
 - natural harmonic
[n]  - artificial harmonic
n(n) - tapped harmonic
 ~   - vibrato
 tr  - trill
 T   - tap
 TP  - trem. picking
 PM  - palm muting
\n/  - tremolo bar dip; n = amount to dip
 \n  - tremolo bar down
 n/  - tremolo bar up
/n\  - tremolo bar inverted dip
 =   - hold bend; also acts as connecting device for hammers/pulls
 <> - volume swell (louder/softer)
 x   - on rhythm slash represents muted slash
 o   - on rhythm slash represents single note slash

Misc Legend
-----------
 |  - bar
||  - double bar
||o - repeat start
o|| - repeat end
*|  - double bar (ending)
 :  - bar (freetime)
 $  - Segno
 &  - Coda
Tempo markers -  = BPM(8/16=s8/s16), where s8 = swing 8ths, s16 = swing 16ths



--------------------------------------------------------------------------------

8 comments on Route 1

Very good job

5

Beautiful arrangement, I hope you'll make others

Thank you I will! :D

Thank you I will! :D

Awesome!

This is very fun to play and brings me back memories. Thank you for the tablatures! Very nicely arranged!

Thank you! I felt the same

Thank you! I felt the same way :D

Sold!

Sold!

You bought it for free!

You bought it for free!

I included your three

5

I included your three "pokemon" tabs in my tab book (printed) Thanks a lot

Thank you! You're awesome!

Thank you! You're awesome!