Login or Register to remove this ad. | Advertise Here

Pokemon Tower (Pokémon Red & Blue & Yellow) Guitar Tab

Submitted: Aug 09, 2009 by Jacob31593 (Last updated: Sep 17, 2009)

5
Average: 5 (1 vote)
Download | Listen
Game: Pokémon Red & Blue & Yellow
Composer(s): Junichi Masuda
Style: 2 or more instruments, Arrangement, Transcription
Series: Pokemon

AutoScroll: Slow | Medium | Fast
Pokemon Tower from Pokemon R/Y/B
Composed by Junichi Masuda
Tabbed by Jacob31593
Aug. 9th 2009

Both tracks in standard tuning and transposed one octave down.
120 BPM

Guitar 1

      Q     Q     Q     Q     
E||--------------------------|
B||--13----12----------------|
G||--------------12----------|
D||--------------------14----|
A||--------------------------|
E||--------------------------|


Repeat back to here

    H        Q     S  S  S  S     H         H         
|-----------------------------|----------------------|
|-----------------------------|------------13--------|
|*----------------12-11-------|--12------------------|
|*----------------------14-13-|----------------------|
|-----------------------------|----------------------|
|-----------------------------|----------------------|


   Q     Q     Q     Q        W                   Q     Q     Q    Q        Q    Q     Q    Q     
--------------------------|--------------------|------------------------|------------------------|
--12----------------------|--13----------------|--L---------------------|------------------------|
--------12----------12----|--------------------|------------------------|------------------------|
--------------14----------|--------------------|-------------------9----|--------9----10----9----|
--------------------------|--------------------|-------10----10---------|--10--------------------|
--------------------------|--------------------|------------------------|------------------------|


   W                   W                   Q     Q     Q     Q        Q     Q     Q     Q     
--------------------|-------------------|-------------------------|--------------------------|
--------------------|-------------------|-------13----12----------|--12----------------------|
--------------------|--9----------------|--L----------------12----|--------12----11----------|
--10----------------|-------------------|-------------------------|--------------------14----|
--------------------|-------------------|-------------------------|--------------------------|
--------------------|-------------------|-------------------------|--------------------------|


   H.            Q        W                    Q     Q     Q     Q        W                 
----------------------|--------------------|--------------------------|--------------------|
----------------------|--------------------|--12----------------------|--12----------------|
--11------------12----|--11----------------|--------12----11----------|--------------------|
----------------------|--------------------|--------------------14----|--------------------|
----------------------|--------------------|--------------------------|--------------------|
----------------------|--------------------|--------------------------|--------------------|


   Q     Q     Q     Q        W                    Q     Q     Q     Q        W                 
--------------------------|--------------------|--------------------------|--------------------|
--13----------------------|--13----------------|--15----------------------|--15----------------|
--------12----11----------|--------------------|--------14----13----------|--------------------|
--------------------14----|--------------------|--------------------16----|--------------------|
--------------------------|--------------------|--------------------------|--------------------|
--------------------------|--------------------|--------------------------|--------------------|


   Q     Q     Q     Q        Q     Q     Q     Q        Q     Q     Q     Q     
--12----------------------|--13----------------------|--14----------------------|
--------12----------------|--------13----------------|--------15----13----------|
--------------14----12----|--------------15----13----|--------------------15----|
--------------------------|--------------------------|--------------------------|
--------------------------|--------------------------|--------------------------|
--------------------------|--------------------------|--------------------------|


   Q     Q     Q     Q        Q    H.              W                   W                 
--------------------------|---------------------|-------------------|-------------------|
--------------------------|---------------------|-------------------|-------------------|
--13----11----------------|---------------------|-------------------|-------------------|
--------------14----12----|--10----L------------|--L----------------|--L----------------|
--------------------------|---------------------|-------------------|-------------------|
--------------------------|---------------------|-------------------|-------------------|


  H         E   E   E   E      W                     W                     H         H         
-------------------14------|--15~----------------|--20~----------------|--19------------------|
-----------17--16------16--|---------------------|---------------------|------------20--------|
---------------------------|---------------------|---------------------|----------------------|
--L------------------------|---------------------|---------------------|----------------------|
---------------------------|---------------------|---------------------|----------------------|
---------------------------|---------------------|---------------------|----------------------|


   H         H            W                    H        E  E   E  E   
----------------------|--20~----------------|--L----------------------||
--17--------20--------|---------------------|-------------------------||
----------------------|---------------------|-----------9--8--11--8--*||
----------------------|---------------------|------------------------*||
----------------------|---------------------|-------------------------||
----------------------|---------------------|-------------------------||




Duration Legend
---------------
W - whole
H - half
Q - quarter
E - 8th
S - 16th
T - 32nd
X - 64th
. - note dotted
|-n-|  - n-tuplets


Tablature Legend
----------------
L - tied note
~ - vibrato



Guitar 2

      H.            Q          
E||----------------------|
B||--13------------------|
G||----------------------|
D||----------------14----|
A||----------------------|
E||----------------------|


Repeat back to here

Q    Q     Q    Q       Q    Q    Q    Q       Q    Q    Q    Q     
|-------------------------|----------------------|----------------------|
|---13---------12---------|----------------------|----------------------|
|*--10----------9---------|--9---------9----9----|--9---------9---------|
|*------------------------|--9---------9----9----|--9---------9---------|
|-------------------------|----------------------|----------------------|
|-------------------------|----------------------|----------------------|

  Q    Q    Q    Q       S S E  Q    Q    Q       Q    Q     Q    Q        Q    Q     Q    Q     
------------7---------|------------------------|-----------------------|------------------------|
------------7---------|--8-7-------------------|-----------------------|------------------------|
--9-------------------|------9-----------------|-----------------------|------------------------|
--9-------------------|--------------9---------|--9---------10---------|--10---------10---------|
----------------------|--------------7---------|--7----------9---------|---7---------10---------|
----------------------|------------------------|-----------------------|------------------------|


   Q    Q     Q    Q        Q    Q     Q    Q       Q    Q    Q    Q        Q    Q     Q    Q     
------------------------|------------------------|----------------------|------------------------|
------------------------|------------------------|----------------------|------------------------|
------------------------|------------------------|----------------------|------------------------|
--10---------10---------|--10----------9---------|--9---------9---------|--10---------10---------|
--10----------9---------|---9---------10---------|--7---------5---------|---7---------10---------|
------------------------|------------------------|----------------------|------------------------|


   Q    Q     Q    Q       Q    Q    Q    Q       Q    Q    Q    Q        Q    Q     Q    Q     
------------------------|----------------------|----------------------|------------------------|
------------------------|----------------------|----------------------|------------------------|
------------------------|--9---------9---------|--9---------9---------|---9----------9---------|
--10---------10---------|--9---------9---------|--9---------9---------|--11---------11---------|
--10----------7---------|----------------------|----------------------|------------------------|
------------------------|----------------------|----------------------|------------------------|


   Q    Q     Q     Q        Q    Q     Q    Q       Q    Q    Q    Q       Q    Q    Q    Q     
-------------------------|------------------------|----------------------|----------------------|
-------------------------|------------------------|----------------------|----------------------|
--10---------10----12----|--11---------11---------|--7---------7---------|--9---------9---------|
--10---------10----10----|--12---------12---------|--7---------7---------|--9---------9---------|
-------------------------|------------------------|----------------------|----------------------|
-------------------------|------------------------|----------------------|----------------------|


   Q    Q     Q    Q        Q    Q     Q    Q        Q    H.               Q     Q     Q     Q     
------------------------|------------------------|---------------------|--------------------------|
------------------------|------------------------|---------------------|--------------------------|
--10---------10---------|--11---------11---------|--12-----------------|--------------------------|
--10---------10---------|--11---------11---------|--12-----------------|--10----10----10----10----|
------------------------|------------------------|---------------------|---9-----9----10-----9----|
------------------------|------------------------|---------------------|--------------------------|


   Q    H.               Q     Q     Q     Q        Q    H.               Q     Q     Q     Q     
---------------------|--------------------------|---------------------|--12----12----10----------|
---------------------|--------------------------|---------------------|--12----------------13----|
---------------------|--------------------------|---------------------|--------------------------|
--10-----------------|--10----10----10----10----|--10-----------------|--------------------------|
---9-----------------|---9-----9----10-----9----|---9-----------------|--------------------------|
---------------------|--------------------------|---------------------|--------------------------|


   Q     Q     Q     Q        Q     Q     Q     Q        Q     Q     Q    Q        Q    Q     Q    Q     
--12----12----10----------|--12----12----10----------|-------------------------|--13--------------------|
--12----------------13----|--12----------------13----|--12---------------------|--13---------13---------|
--------------------------|--------------------------|--------12----11----9----|-------------13---------|
--------------------------|--------------------------|-------------------------|------------------------|
--------------------------|--------------------------|-------------------------|------------------------|
--------------------------|--------------------------|-------------------------|------------------------|


                
----------------||
----------------||
---------------*||
---------------*||
----------------||
----------------||




Duration Legend
---------------
W - whole
H - half
Q - quarter
E - 8th
S - 16th
T - 32nd
X - 64th
. - note dotted
|-n-|  - n-tuplets


Tablature Legend
----------------
L - tied note